• Song:

    Nothing To Me

  • Artist:

    Black Flag

Artist: Black Flag
Song: Nothing to Me


For those of you who don't know, this song is in the original
Tony Hawk's Pro Skater.  I could not find a tab freakin anywhere, so 
I dedicated between two and three minutes of my life to figure
it out.
1--------------------------------------------------------E
2--------------------------------------------------------B
3--------------------------------------------------------G
4-333-666/888-999-9-11-11--------------------------------D  Repeat As Neccesary
5-333-666/888-999-9-11-11--------------------------------A
6-111-444/666-777-7--9--9--------------------------------E
Second Part
1--------------------------------------------------------E
2--------------------------------------------------------B
3--------------------------------------------------------G
4-11--9-11---9--11-9-------------------------------------D   Repeat as Neccesary
5-11--9-11---9--11-9-------------------------------------A
6--9--7--9---7---9-7-------------------------------------E

At the end of that Part go
0:22
1--------------------------------------------------------E
2--------------------------------------------------------B
3-12--10-9-10B-10br--------------------------------------G
4--------------------------------------------------------D
5--------------------------------------------------------A
6--------------------------------------------------------E

Another Random Part Goes
At 0:42
1--------------------------------------------------------E
2--------------------------------------------------------B
3--------------------------------------------------------G
4-9-11-13-14-16------------------------------------------D
5-7--9-11-12-14------------------------------------------A
6-7--9-11-12-14------------------------------------------E

Then There is a bass solo  -  it sounds like guitar, but ive seen videos
Guitar comes in with the second part
Youcan improvise the bass solo with the part at 0:22, but on a lower string.  It is the same notes but on bass
it is an octave lower. Good Luck! Finally, someone tabbed this song!

If there are any mistakes, tell me.  I appreciate.  Any sh*t talk or
compliments to PaintSteveGreen@yahoo.com
Show more