• Song:

    Rise Above

  • Artist:

    Black Flag

  • Album:

    Live at The On Broadway...

Ok this tab is pretty hard to find, and I searched everywere and I cant find it so play this and listen to the song and you will eventually get it:
INTRO:
G--------------------------------------------------------
D--------------------------------------------------------
A--------------------------------------------------------
E---777-666-555-444-777-666-555-444--3-55-555-3-55-------

G-------------------------------------------------------- 
D-------------------------------------------------------- 
A-------------------------------------------------------- 
E---777-666-555-444-777-666-555-444-3-55-555-3-55--------

G-------------------------------------------------------- 
D---------------------------------------------
A-------------------------------------------------------- 
E--88888888-00000000-1111-33333333-----------------------
  VERSE:
G--------------------------------------------------------
D-----------------------------------PLAY THIS PART
A?55555555-3-55-555-3-55------------   4x
E--------------------------------------------------------
    Chorus:
G--------------------------------------------------------
D--------------------------------------------------------
A--7-75-5----------5555----------------------------------
E--------3-3-55-00------3-55-555-3-55--------------------

This part ^ may not sound right but I listened to the bass very carefully and this is it, maybe the gee tar does something else and that?s why it sounds weird.
Show more