• Song:

    Slip It In

  • Artist:

    Black Flag

  • Album:

    Wasted Again

Author/Artist: Black Flag
Title: Slip It In
Album: Slip It In


Here's the basic structure - without fills and solos - I leave it to you to 
put the pieces together.
The intro. is played in the live solo (Check out Live '84 and Who's Got the 
10 1/2?)
This is how I play the song so it probably differs from Greg.
I'm doing this from memory so there may be mistakes.
Corrections welcomed.

---|-0----0--------0----0-------|---0--12-15b17r15-12-|
---|---3----3--------3----3-----|---0--12-------------|
-1-|----------1-------------1---|---------------------|
---|------------0-------------0-|-2-------------------|
---|----------------------------|-2-------------------|
---|----------------------------|-0-------------------|






DUN DUN DU!!!!!!! Here is the lead bit!!:

  |---3----|  |---3----|  |---3----|  |---3----|  |---3----|  |---3----|
   S  S  S  S  S  S  S  S  S  S  S  S  S  S  S  S  S  S  S  S  S  S  S  S
|-13-12-14-13-14-13-15-14-15-14-16-15-16-15-17-16-17-16-18-17-16-15-17-16-|
|-------------------------------------------------------------------------|
|-------------------------------------------------------------------------|
|-------------------------------------------------------------------------|
|-------------------------------------------------------------------------|
|-------------------------------------------------------------------------|


   |---3----|  |---3----|  |---3----|  |---3----|  |---3----|  |---3---|
   S  S  S  S  S  S  S  S  S  S  S  S  S  S  S  S  S  S  S  S  S S  S  S
|-15-14-16-15-14-13-15-14-13-12-14-13-12-11-13-12-11-10-12-11-10-9-11-10-|
|------------------------------------------------------------------------|
|------------------------------------------------------------------------|
|------------------------------------------------------------------------|
|------------------------------------------------------------------------|
|------------------------------------------------------------------------|


  |--3---| |--3--| |--3--| |--3--| |--3--| |--3--|
  S S  S S S S S S S S S S S S S S S S S S S S S S
|-9-8-10-9-8-7-9-8-7-6-8-7-6-5-4-6-5-4-3-5-4-3-5-4-|
|--------------------------------------------------|
|--------------------------------------------------|
|--------------------------------------------------|
|--------------------------------------------------|
|--------------------------------------------------|


  S S S S S S S S S S S S S S S S
|-3-2-4-3-2-1-3-2-1---------------|
|---------------------------------|
|---------------------------------|
|---------------------------------|
|---------------------------------|
|---------------------------------|





Intro. - Bass enters first   2x                   Etc.

--------------------------------------|
--------------------------------------|
----------------------9---------------|
--------------------9-----------------|
-2-2--2-2-2--2-2--7-----7------------|
-0-0--0-0-0--0-0----------------------|
Riff differs slightly throughout song.

------------------------------|--------------------------------|
------------------------------|--------------------------------|
------------------------------|--------------------------------|
-5-5-5--5-5-5--5--5-5-5-----2-|-11-11-11--11-9-----------------|
-5-5-5--5-5-5--5--5-5-5-3-3-2-|-11-11-11--11-9-----------------|
-3-3-3--3-3-3--3--3-3-3-----0-|--9--9--9---9-7-----------------|
                           (2x)You say you don' want it... (2x)

------------|-------------------------------|
------------|-------------------------------|
------------|-------------------------------|
-7-7-7--7-5-|-2-----------------------------|
-7-7-7--7-5-|-2-----------------------------|
-5-5-5--5-3-|-0-----------------------------|
"        2x    And then you slip it on in...

-------------|---------------------------------|
-------------|---------------------------------|
-------------|---------------------------------|
-5-5-5-5-5-5-|------------------5-5-5-----2----|
-5-5-5-5-5-5-|------------------5-5-5-3-3-2----|
-3-3-3-3-3-3-|------------------3-3-3-----0----|
           3x You - Slip - It               In
Show more