Tabbed by Robin Graves

Invoke the Beast/Attack of the Ghoulies

Intro:4x

Gb-----------|
Db-----------|
Ab-----------|
Eb--0-7-6-3--|

Play this riff 2x

Gb-----------|
Db-----------|
Ab----3-2----|
Eb--5-----3--|

Play this riff 3x

Gb-----------|
Db-----------|
Ab-----------|
Eb--0-7-6-3--|

Play this once

Gb-----
Db-----
Ab-----
Eb—0~--

Verse:

Gb-----------------|
Db-----------------|
Ab--77-777----555--|
Eb---------33------|

Chorus:

Gb-------------------------------------------------------------------------|
Db-------------------------------------------------------------------------|
Ab--55-555--------55-555--------55-555-------------------------------------|
Eb---------55-555--------55-555--------55-555-00-3p0-00-3p0-00-3p0-00-3p0--|
Show more