-----------------------------------------------------------------------------
                For What Its Worth- Buffalo Springfield
-----------------------------------------------------------------------------
Tabbed by: Erik Brown
Email: fugdemonkey1225@aim.com

Tuning: Standard

 +  harmonic
 x  Mute note

   First guitar     (verse/Chorus)
           +                    +
e|---------12-------------------7--------------------------------------------|
B|---------------------------------------------------------------------------|
G|---------------------------------------------------------------------------|
D|---------------------------------------------------------------------------|
A|---------------------------------------------------------------------------|
E|---------------------------------------------------------------------------|
         throughout the whole song but in the chorus it goes faster.

  Second Guitar    (verse)

e|---------------------------------------------------------------------------|
B|---------------------------------------------------------------------------|
G|-------------------------------------------------repeat a few times--------|
D|---------------------------------------------------------------------------|
A|---------------7---x---------x----7-------------------7---x--------x--7----|
E|------0----x------------5--------------x-----0----x------------5-----------|

        third guitar        (verse)
       E                      A
e|---------------------------------------------------------------------------|
B|----------------------------2----------------------------------------------|
G|-----1----------------------2----------------------------------------------|
D|-----2----------------------2----------------------------------------------|
A|-----2----------------------0----------------------------------------------|
E|-----0---------------------------------------------------------------------|
    strum each chord a few times

      guitar 3  (chorus)
                      E           D                   A
I think its time we stop clidren whats that sound everybody look whats
e|--------------------------------2----------------------|
B|--------------------------------3-------------------2--|
G|---------------------1----------2-------------------2--|
D|---------------------2----------0-------------------2--|
A|---------------------2------------------------------0--|
E|---------------------0---------------------------------|I think its time we stop 
whats that sound everybody look whats

       C
e|-----0---------------------------------------------------------------------|
B|-----1---------------------------------------------------------------------|
G|-----0---------------------------------------------------------------------|
D|-----2---------------------------------------------------------------------|
A|-----3---------------------------------------------------------------------|
E|---------------------------------------------------------------------------|     going
           (strum each chord on the chorus a few times each)


    email me if you figure out the lead electric guitar that comes in after a while or 
you have any complaints. this song is awsome so have fun.
Show more