-------------------------------------------------------------------------------
			     THE RED - Chevelle
-------------------------------------------------------------------------------

Tabbed By : KoRnKid89
e-mail: XblytheX89@aol.com

Tuning: CFDG

  Verse 1 / Bridge:
G|---------------------------|---------------------------|
D|---------------------------|---------------------------|
F|--------------5-5-5-5-5----|--------------3-3-3-3-3----|
C|--0--1-3-1-0------------0--|--0--1-3-1-0------------0--| (x3)

G|---------------------------|---------------------------|
D|---------------------------|---------------------------|
F|--------------5-5-5-5-5----|--------------3------------|
C|--0--1-3-1-0------------0--|--0--1-3-1-0---------------|

  
  Chorus:
G|---------------------------------------------------|
D|---------------------------------------------------|
F|---------------------------------------------------|
C|--0---0-0-0-0-0-0-0-0-0-0-3---3-3-3-3-3-3-3-3-3-3--|

G|---------------------------------------------------|
D|---------------------------------------------------|
F|--5---5-5-5-5-5-5-5-5-5-5-5-5-5-5-5-5-5-5-5-5-5-5--|
C|---------------------------------------------------|

G|---------------------------------------------------|
D|---------------------------------------------------|
F|---------------------------------------------------|
C|--0---0-0-0-0-0-0-0-0-0-0-3---3-3-3-3-3-3-3-3-3-3--|

G|---------------------------------------------------|
D|---------------------------------------------------|
F|---------------------------------------------------|
C|--5---5-5-5-5-5-5-5-5-5-5\2---2-2-2-2-2---2-2-2-2--|


  Intro to Verse 2: ("seeing red again...")
G|---------------------------|---------------------------|
D|---------------------------|---------------------------|
F|--------------5-5-5-5-5----|--------------3-3-3-3-3----|
C|--0--1-3-1-0------------0--|--0--1-3-1-0------------0--| (x2)

  
  Verse 2:
G|---------------------------|---------------------------|
D|---------------------------|---------------------------|
F|--------------5-5-5-5-5----|--------------3-3-3-3-3----|
C|--0--1-3-1-0------------0--|--0--1-3-1-0------------0--| (x7)

G|---------------------------|---------------------------|
D|---------------------------|---------------------------|
F|--------------5-5-5-5-5----|--------------3------------|
C|--0--1-3-1-0------------0--|--0--1-3-1-0---------------|


  Outro: ("SEEING RED AGAIN!")
G|---------------------------|---------------------------|
D|---------------------------|---------------------------|
F|--------------5-5-5-5-5----|--------------3-3-3-3-3----|
C|--0--1-3-1-0------------0--|--0--1-3-1-0------------0--| (x3)
  
G|---------------------------|---------------------------|-------------------------------|
D|---------------------------|---------------------------|-------------------------------|
F|--------------5-5-5-5-5----|--------------3-3-3-3-3----|--3-3-----3-3-----2-2-----2-2--|
C|--0--1-3-1-0------------0--|--0--1-3-1-0------------0--|-------------------------------|

  ("They say freak...")
G|---------------------------|
D|---------------------------|
F|---------------------------|
C|--0------------------------|



| /  slide up
| \  slide down
| h  hammer-on
| p  pull-off
| ~  vibrato
| +  harmonic
| x  Mute note
===============================================================================
Show more