Artist: Chevelle
Song: The Red
Album: Wonder What's Next

Tuning: Down half a step and drop-d
X=Palm Mute

Intro (Light Distortion)
|------------------------------------------
|------------------------------------------
|------------------------------------------
|------------------------------------------
|----5-7-5-0-3-3-0-3-0----5-7-5-0-8-8-0-8-0
|-0--0-0-0-0-3-3-0-3-0--0-0-0-0-0-8-8-0-8-0


Verse (Heavy Distortion)
|------------------------------------------
|------------------------------------------
|------------------------------------------
|------------------------------------------
|----5-7-5-0-3-3-0-3-0----5-7-5-0-8-8-0-8-0
|-0--0-0-0-0-3-3-0-3-0--0-0-0-0-0-8-8-0-8-0
  X  X X X X X X X X X  X X X X X X X X X X


This is right before the song goes into the chorus.
|-----------
|-----------
|-----------
|-----------
|--5-7-5-0-8
|0-0-0-0-0-8


Chorus
I don't feel like tabbing the timing for this part but its not hard to
figure out so here are the 3 chords.
|---------
|---------
|---------
|-0--3--10
|-0--3--10
|-0--3--10


This part is towards the end of the song.
|---------
|---------
|---------
|-8-8-X-X-8-8-X-X-7-7-X-7-7-0
|-8-8-X-X-8-8-X-X-7-7-X-7-7-0
|-8-8-X-X-8-8-X-X-7-7-X-7-7-0


Outro (Light Distortion)
|------------------------------------------
|------------------------------------------
|------------------------------------------
|------------------------------------------
|----5-7-5-0-3-3-0-3-0----5-7-5-0-8-8-0-8-0
|-0--0-0-0-0-3-3-0-3-0--0-0-0-0-0-8-8-0-8-0

This is how I think the song goes.  Also I don't have the solo but they only have
1 guitar player so it doesnt really matter, and if you think this tab is horrible
I could care less.
Show more