I just figered I would go ahead and fix the song from the other tab because the person that
put it on the other one wasn't right.  Pretty close, but this is more accurate.

Drop D tuning (probably all tuned down half step too)
intro/Verse:  Verse is PM though
---------------------------------
---------------------------------
---------------------------------
--7--7-9-7--0--3--3--3-----------
--7--7-7-7--0--3--3--3-----------
--7--7-7-7--0--3--3--3-----------
There are some strums in there that I didn't write.  I just decided to save some room.  you can figure it out.

Chorus:
--0---------------------Then last time:>--------- 
--3----------------------------------------------
--2-------12-------------------------------------
--0---3---10----------------------------7h8------
--0---3---10-------------------------------------
--0---3---10-------------------------------------
again, more strumming, those are just the chords

Then repeat intro and verse


Solo (I guess it's a solo):
--------------------------------
--------------------------------
--------------------------------
----7h8~~~~~~-------------------
-------------4-4-4h6~~~~~~------
--------------------------------

that's the whole song, just put the tabs where they go.  later
Show more