• Song:

    Wonder Whats Next

  • Artist:

    Chevelle

  • Album:

    Wonder Whats Next

Chevelle: Wonder What's Next
Album: Wonder What's Next
Tuning: B F# B E G# C#

/ = slide up
\ = slide down
h = hammer on
b = bend
p = pull off
~ = let it ring
. = palm mute
x = mute
<> = harmonic
p/ = pick slide
v^ = double pick


Guitar 2 (0:00-0:12)
C#|-------------------|
G#|-------------------|
E |-------------------|
B |-------------------|
F#|-------------------|
B |--0-5-6p0-6\5-0-5--|
     . . .   .   . .

Guitar 1 (0:06-0:12)
C#|-------------------|
G#|-------------------|
E |-------------------|
B |-------------------|
F#|-------------------|
B |--0-5-6p0-6\5-0-5--|
     . . .   .   . .

There is no way to tab this part...EXCEPT...lay your fingers across the bottom 3 strings 
G#, and C#) and then slide up and down...hitting as many harmonics as you can. The only 
i actually KNOW is the last one leading into the chorus.

Guitar 1 & 2 (0:12-0:40)
C#|--<>-<>-<>-<>-<>--|
G#|--<>-<>-<>-<>-<>--|
E |--<>-<>-<>-<>-<>--|
B |------------------|
F#|------------------|
B |------------------|

Guitar 1 (0:40-0:43)
C#|-------|
G#|-------|
E |--<3>--|
B |-------|
F#|-------|
B |-------|

Guitar 2 (0:42-0:43)
C#|-------|
G#|--<3>--|
E |-------|
B |-------|
F#|-------|
B |-------|


Guitar 1 & 2 (0:43-1:09)
C#|-------------------|
G#|-------------------|
E |-------------------|
B |--0-5-6p0-6\5-0-5--|x16
F#|--0-5-6p0-6\5-0-5--|
B |--0-5-6p0-6\5-0-5--|


Guitar 1 & 2 (1:09-1:22)
C#|-----------------|
G#|-----------------|
E |--v^v^v----------|
B |--33333-4p3-0p3--|x7
F#|--33333-4p3-0p3--|
B |--33333-4p3-0p3--|
     .....
C#|--------------------|
G#|--------------------|
E |--v^v^v-------------|
B |--33333-4p3-0p3-00--|
F#|--33333-4p3-0p3-00--|
B |--33333-4p3-0p3-00--|
     .....


Guitar 1 & 2 (1:26-1:39)
C#|-------------------|
G#|-------------------|
E |-------------------|
B |--0-5-6p0-6\5-0-5--|x8
F#|--0-5-6p0-6\5-0-5--|
B |--0-5-6p0-6\5-0-5--|


Guitar 1 & 2 (1:39-1:52)
C#|-----------------|
G#|-----------------|
E |--v^v^v----------|
B |--33333-4p3-0p3--|x7
F#|--33333-4p3-0p3--|
B |--33333-4p3-0p3--|
     .....
C#|--------------------|
G#|--------------------|
E |--v^v^v-------------|
B |--33333-4p3-0p3-00--|
F#|--33333-4p3-0p3-00--|
B |--33333-4p3-0p3-00--|
     .....


Guitar 1 & 2 (1:59)
C#|------|
G#|------|
E |------|
B |--00--|
F#|--00--|
B |--00--|


Guitar 1 (2:05-2:32)
C#|-------------------|
G#|-------------------|
E |-------------------|
B |--0-5-6p0-6\5-0-5--|x6
F#|--0-5-6p0-6\5-0-5--|
B |--0-5-6p0-6\5-0-5--|
     . . .   .   . .
^^Play this part^^ 6 times. Listen closely to the 7th and 8th time. You can hear some 
in there. It's kind of hard to palm mute, hit the harmonic, slide the harmonic down, and 
to palm mute, but if you practice enough it works.
C#|-----------------------|
G#|-----------------------|
E |-----------------------|
B |--0-5-6---------5-0-5--|
F#|--0-5-6---------5-0-5--|
B |--0-5-6-<0>-<6>-5-0-5--|
     . . .         . . .
C#|--------------------------|
G#|--------------------------|
E |--------------------------|
B |--0-5-6--------------0-5--|
F#|--0-5-6--------------0-5--|
B |--0-5-6-<0>-<6>\<5>--0-5--|
     . . .              . .
C#|-------------------|
G#|-------------------|
E |-------------------|
B |--0-5-6p0-6\5-0-5--|x7
F#|--0-5-6p0-6\5-0-5--|
B |--0-5-6p0-6\5-0-5--|
     . . .   .   . .
C#|-------------------|
G#|-------------------|
E |-------------------|
B |--0-5-6p0-6\5-0-5--|
F#|--0-5-6p0-6\5-0-5--|
B |--0-5-6p0-6\5-0-5--|


Guitar 2 (2:05-2:32)
C#|-------------------|
G#|-------------------|
E |-------------------|
B |--0-5-6p0-6\5-0-5--|x15
F#|--0-5-6p0-6\5-0-5--|
B |--0-5-6p0-6\5-0-5--|
     . . .   .   . .
C#|-------------------|
G#|-------------------|
E |-------------------|
B |--0-5-6p0-6\5-0-5--|
F#|--0-5-6p0-6\5-0-5--|
B |--0-5-6p0-6\5-0-5--|


Guitar 1 & 2 (2:45-2:57)
C#|-----------------|
G#|-----------------|
E |--v^v^v----------|
B |--33333-4p3-0p3--|x7
F#|--33333-4p3-0p3--|
B |--33333-4p3-0p3--|

C#|---------|
G#|---------|
E |--v^v^v--|
B |--33333--|
F#|--33333--|
B |--33333--|


Guitar 1 & 2 (2:58-3:25)
C#|-------------------|
G#|-------------------|
E |-------------------|
B |--0-5-6p0-6\5-0-5--|x16
F#|--0-5-6p0-6\5-0-5--|
B |--0-5-6p0-6\5-0-5--|


Guitar 1 & 2 (3:25-3:37)
C#|-----------------|
G#|-----------------|
E |-----------------|
B |-----------------|x7
F#|--v^v^v----------|
B |--33333-4p3-0p3--|
     .....
C#|---------|
G#|---------|
E |--v^v^v--|
B |--33333--|
F#|--33333--|
B |--33333--|
     .....

Guitar 1 & 2 (3:38-4:05)
C#|-----------------|
G#|-----------------|
E |--v^v^v----------|
B |--33333-4p3-0p3--|x15
F#|--33333-4p3-0p3--|
B |--33333-4p3-0p3--|

C#|--------------------|
G#|--------------------|
E |--v^v^v-------------|
B |--33333-4p3-0p3-00--|
F#|--33333-4p3-0p3-00--|
B |--33333-4p3-0p3-00--|
Show more