• Song:

    Call Your Name

  • Artist:

    Chris Daughtry

                  Daughtry-Call your Name

By Sanjeev George and Thomas George
SanjeevGeorge123@yahoo.co.in

Submitted to and for www.ultimate-guitar.com only, the site for all your tab needs
PLEASE RATE AND COMMENT

TUNING-HALF STEP DOWN

Chords on guitar 1,leads and arps on guitar 2

INTRO    C (x32010@1) Am (x02210@1) Em (022000@1) G (320003@1)X2



    C (x32010@1)   Am (x02210@1)    Em (022000@1)   G (320003@1)    F (133211@1)    Em/Ce|----------------0------3------1-------0--------------------| (032000@1)B|--1------1------0------3------1-------1--------------------|
G|--0------2------0------0------2-------0--------------------|
D|--2------2------2------0------3-------2--------------------|
A|--3------0------2------2------3-------2--------------------|
E|----------------0------3------1-------0--------------------|


       A5 (x022xx@1)   G5 (355xxx@1)  F5 (133xxx@1)   C5 (x355xx@1)   Em/C5    G#5 (133xxx@4)   Bb5e|----------------------------------------------------------| (x133xx@1)B|----------------------------------------------------------|
G|--------------------------5-------------------------------|
D|-----7------5------5------5-----5---------6-------8-------|
A|-----7------5------5------3-----2---------6-------8-------|
E|-----5------3------1----------------------4-------6-------|

Verse
 C (x32010@1)               Am (x02210@1)                                   
You never said, you never said, you never said 
  Em (022000@1)                   Gthat (320003@1)it would be this hard
  C (x32010@1)                Am (x02210@1)                 
Love is meant to be forever, now or 
          Em (022000@1)         Gnever (320003@1)seems to discard

  C (x32010@1)                           AmThere's (x02210@1)got to be a better way for me to say 
        Em (022000@1)              Gwhat's (320003@1)on my heart without leaving scars

      F (133211@1)                 GSo (320003@1)can you hear me when I call your name?

Chorus

   Am (x02210@1)     G (320003@1)          F (133211@1)                   C (x32010@1)       Em/CWhen (032000@1)you fall apart, am I the reason for your endless sorrow?
  Am (x02210@1)     G (320003@1)        F (133211@1)  GThere's (320003@1)so much to be said
   Am (x02210@1)       G (320003@1)       F (133211@1)                   C (x32010@1)      Em/CWith (032000@1)a broken heart, your walls can only go down but so low
     F (133211@1)                   GBut (320003@1)can you hear me when I call your name?
   GWhen (320003@1)I call your name


Guitar 2 arps during chorus something like

e|-----------------------------------------------|
B|--1-------0------------------------------------|
G|----2-------0-----0-----2-----0----------------|
D|------2-------0-----0-----3-0---2---2----------|
A|----------------------------------3---3--------|
E|-----------------------------------------------|

VERSE 2 chords are same as verse 1

Complicated situations are the makings of all that's wrong
And I've been standing in the river of deliverance way too long
There's got to be a better way for me to say what's on my heart without leaving scars
So can you hear me when I call your name?
So can you hear me when I call your name?

Chorus
When you fall apart, am I the reason for your endless sorrow?
There's so much to be said
With a broken heart, your walls can only go down but so low
But can you hear me when I call your name?

   C (x32010@1)                 Am (x02210@1)            Em (022000@1)                GYou (320003@1)never said, you never said, you never said, you never said
(When I call your name)


solo

e|--------------------------------------------------------------------------|
B|------------------------------------------------13b15-13b16v -------------|
G|--12b14v---14p12----12b14v---14p12----13b15v------------------------------
D|-----------------14----------------14-12b14v------------------------------|
A|--------------------------------------------------------------------------|
E|--------------------------------------------------------------------------|

e|--------------------------------------------------------------------------|
B|--10h12p10---------------12-13-12p10-10-12-10h12p10----10-----------------|
G|-----------12-12b14v--------------------------------12----12b14-----------|
D|--------------------------------------------------------------------------|
A|--------------------------------------------------------------------------|
E|--------------------------------------------------------------------------|


e|--------------------------------------------------------------------------|
B|-10-8-----8---------------------------------------------------------------|
G|------9-7---9-7----9-7------7---------------------------------------------|
D|----------------10-----10-7---10-7----10-7------10-7------10-7------7v----|
A|-----------------------------------10------10-7------10-7------10-7-------|
E|--------------------------------------------------------------------------|

Yeah!!!
Chorus
   A5 (x022xx@1)     G5 (355xxx@1)          F5 (133xxx@1)                   C5 (x355xx@1)       Em/CWhen (032000@1)you fall apart, am I the reason for your endless sorrow?
  A5 (x022xx@1)     G5 (355xxx@1)       F5 (133xxx@1)  G5There's (355xxx@1)so much to be said
   A5 (x022xx@1)       G5 (355xxx@1)       F5 (133xxx@1)                C5 (x355xx@1)      Em/CWith (032000@1)a broken heart, your walls can only go down but so low
     F5 (133xxx@1)             G5But (355xxx@1)can you hear me when I call your name?

Guitar 2
e|-----------------------------|
B|-----------------------------|
G|-----------------------------|
D|------------5----------------|
A|--------5-7---7-5------------|
E|--5-7-8----------------------|

   A5 (x022xx@1)     G5 (355xxx@1)          F5 (133xxx@1)                   C5 (x355xx@1)       Em/CWhen (032000@1)you fall apart, am I the reason for your endless sorrow?
  A5 (x022xx@1)     G5 (355xxx@1)       F5 (133xxx@1)  G5There's (355xxx@1)so much to be said
   A5 (x022xx@1)       G5 (355xxx@1)       F5 (133xxx@1)                C5 (x355xx@1)      Em/CWith (032000@1)a broken heart, your walls can only go down but so low
     F5 (133xxx@1)             G#5 (133xxx@4)              Bb5 (x133xx@1)  C5But (x355xx@1)can you hear me when I call your name?

Guitar 2 during the last chorus

e|-----------------------------------------------|
B|-----------------------------------------------|
G|--12b14r12----12h14p12----14-12----------------|
D|-----------14----------14-------14-12----------|
A|-----------------------------------------------|
E|-----------------------------------------------|

e|-----------------------------------------------------------------------|
B|-------------------------13v-15v-17vvvvvv vibrate with whammy----------|
G|-5v-7v-8v-10v-12h13v?15v-------------------then pick slide-------------|
D|-----------------------------------------------------------------------|
A|-----------------------------------------------------------------------|
E|-----------------------------------------------------------------------|



Show more