Bryan Rutherford
   therutherford@hotmail
   Creed, Beautiful
   from HUMAN CLAY.
   released 10/99 

   fig1/clean/intro fade in, 5times

   |-----------------------------------------------
   |-----------------------------------------------
   |-----------------------------------------------
   |--------3-----3h5------2------3-0--------------
   |-----------------------------------------------
   |---00------00------00----00--------------------
   she wears a coat of colors,
   loved by some feared by others. .. etc.



   fig2/distorted/2 times
   |---------------|
   |---------------|
   |---------------|
   |----3brbr2-0---|
   |---------------| place this part first time only.
   |-00------------|


   |-----------------------------------------------
   |-----------------------------------------------
   |-----------------------------------------------
   |--4--4-4-4--3---3-3-3-----3----3h5----2----3---
   |--2--2-2-2--1---1-1-1--------------------------
   |--2--2-2-2--1---1-1-1--00---00-----00---00-----

   fig1., 5 more times
   |-----------------------------------------------
   |-----------------------------------------------
   |-----------------------------------------------
   |--------3-----3h5------2------3-0--------------
   |-----------------------------------------------
   |---00------00------00----00--------------------
   lust she breeds in the eyes of brothers,
   violent sons make bitter mothers, 
   close your eyes,,, 
   heres your suprise!!!!!


   fig2/distorted/2 times
   |---------------|
   |---------------|
   |---------------|
   |----3brbr2-0---|
   |---------------| place this part first time only.
   |-00------------|


   |-----------------------------------------------
   |-----------------------------------------------
   |-----------------------------------------------
   |--4--4-4-4--3---3-3-3-----3----3h5----2----3---
   |--2--2-2-2--1---1-1-1--------------------------
   |--2--2-2-2--1---1-1-1--00---00-----00---00-----
   the beautiful is empty,
   beautiful is free,
   beautiful loves no one, 

   the beautiful...

   |------------|
   |------------|
   |---------3--| 5 times
   |-0--0-0--1--|
   |-0--0-0--1--|
   |------------|
   stripped me
   stripped mee


   |--------------|
   |--------------|
   |----------7b--| 4 times
   |-0--0-0-------| on 4th time, 
   |-0--0-0-------| hold 7b and let ring.
   |--------------|


   stripped meeeee


   fig 1(intro) 5 more times, with lyrics:

   in your mind she's your companion
   violens and something bout candy??? 
   your regret is all thats left....

   fig.2 REPEAT CHORUS
   after main chorus part is this,

   fig3
   |----------10--------10---|
   |-------------------------|listen to get 
   |----------7b--------7b---| the pattern down
   |-0--0-0--------0-0-------| 
   |-0--0-0--------0-0-------| 
   |-------------------------|


   |--1010101010101010-------|
   |-------------------------|
   |--7-7--7-7-7-7-7-7b------| keep 7 bent.
   |-------------------------| went done, let ring.
   |-------------------------|
   |-------------------------|


   i don't have this part, but if anybody does, i would appreciate it greatly, if
   you would mail it me.

   interlude?/solo?
   she told me where i'm going,
   and it's far away from home,
   i think i'll go there on my own,
   i think i'll go there on my own,repeat



   REPEAT CHORUS
   fig2. & fig 3.
   ends with

   |-------------------------|
   |-------------------------|
   |-------------------------|
   |------3------------------|
   |------1------------------|
   |------1------------------|

   creed rules.
   visit me online for more creed stuff.
   http://members.xoom.com/cyberbryan/creed.htm
   plus have the mp3 of beautiful if you don't have the cd so you can learn it.
Show more