"BULLETS"
As recorded by Creed
From the 2002 Album "WEATHERED"

	Words and Music by Mark Tremonti and Scott Stapp
I know there seem to be too many guitars, but this was generated on Power Tab Editor and this is how it is.	

Gtr I (D A D G B E) - 'Clean'
Gtr II (D A D G B E) - 'Distortion 1'
Gtr III (D A D G B E) - 'Distortion 2'
Gtr IV (D A D G B E) - 'Distortion Quiet'

    Quarter note = 82
   6/8
    Gtr I
||--------------------------|-------------------------|
||o-------------------------|-------------------------|
||--------------------------|-------------------------|
||--------------------------|-------------------------|
||o-------------------------|-------------------------|
||--0-0-0-0-0-0-0-0-0-0-0-0-|-0-0-0-0-0-0-0-0-0-0-0-0-|

                 				      x2
|-------------------------|---------------------------||
|-------------------------|--------------------------o||
|-------------------------|---------------------------||
|-------------------------|---------------------------||
|-------------------------|--------------------------o||
|-0-0-0-0-0-0-0-0-0-0-0-0-|-0-0-0-0-0-0-0-0-0-0-0-0---||


||----------------------------|----------------------------|
||o---------------------------|----------------------------|
||----------------------------|----------------------------|
||----------------------------|----------------------------|
||o-12-12-12-12-12-12---------|-------------12-12-12-12-12-|
||---0--0--0--0--0--0-0-0-0-0-|-0-0-0-0-0-0--0--0--0--0--0-|


|---------------------------|-----------------------------|
|---------------------------|-----------------------------|
|---------------------------|-----------------------------|
|---------------------------|-----------------------------|
|-13-13-13-13-13-13---------|-------------13-13-12-12-12--|
|--0--0--0--0--0--0-0-0-0-0-|-0-0-0-0-0-0--0--0--0--0--0--|


|---------------------------|----------------------------|
|---------------------------|----------------------------|
|---------------------------|----------------------------|
|---------------------------|----------------------------|
|-10-10-10-10-10-10---------|-------------10-10-12-12-12-|
|--0--0--0--0--0--0-0-0-0-0-|-0-0-0-0-0-0--0--0--0--0--0-|

							  x2
|---------------------------|-----------------------------||
|---------------------------|----------------------------o||
|---------------------------|-----------------------------||
|---------------------------|-----------------------------||
|-13-13-12-12-12-12---------|---------------------12-12--o||
|--0--0--0--0--0--0-0-0-0-0-|-0-0-0-0-0-0-0-0-0-0--0--0---||


|---------------------------|----------------------------|
|---------------------------|----------------------------|
|---------------------------|----------------------------|
|-14-14-14-14-14-14---------|-------------14-14-14-14-14-|
|-12-12-12-12-12-12---------|-------------12-12-12-12-12-|
|--0--0--0--0--0--0-0-0-0-0-|-0-0-0-0-0-0--0--0--0--0--0-|


|-------------------------------|--------------------------|
|-------------------------------|--------------------------|
|-------------------------------|--------------------------|
|-14-14-14-14-14-15-15-15-15-15-|-15-----------------------|
|-13-13-13-13-13-13-13-13-13-13-|-13-----------------------|
|--0--0--0--0--0--0--0--0--0--0-|--0-0-0-0-0-0-0-0-0-0-0---|


|---------------------------|----------------------------|
|---------------------------|----------------------------|
|-12-12-12-12-12-12---------|-------------12-12-12-12-12-|
|---------------------------|----------------------------|
|-10-10-10-10-10-10---------|-------------10-10-10-10-10-|
|--0--0--0--0--0--0-0-0-0-0-|-0-0-0-0-0-0--0--0--0--0--0-|


      
|-------------------------------|------------------------------------||
|-------------------------------|------------------------------------||
|-14-14-14-14-14-14-14-14-14-14-|-15-15-15-15-15-15s17-17-17-17-17---||
|-------------------------------|------------------------------------||
|-12-12-12-12-12-12-12-12-12-12-|-13-13-13-13-13-13s15-15-15-15-15---||
|--0--0--0--0--0--0--0--0--0--0-|--0--0--0--0--0--0--0---------------||


    Gtrs II, III
||----------------------------------|--------------------------------|
||o---------------------------------|--------------------------------|
||----------------------------------|--------------------------------|
||----------------------------------|--------------------------------|
||o-----------------15--------------|-13-----------------------------|
||--13-12-0-12-0-12----12-0-12-0-12-|----12-0-12-0-0-13-12-0-10-12-0-|

								       x2
|---------------------------------|------------------------------------||
|---------------------------------|-----------------------------------o||
|---------------------------------|------------------------------------||
|---------------------------------|------------------------------------||
|-----------------15--------------|-13--------------------------------o||
|-13-12-0-12-0-12----12-0-12-0-12-|----12-0-12-0-0-13-12-0-10-12-0-----||


     

  PM.................................................................|
||----------------------------------|--------------------------------|
||o---------------------------------|--------------------------------|
||----------------------------------|--------------------------------|
||----------------------------------|--------------------------------|
||o-----------------15--------------|-13-----------------------------|
||--13-12-0-12-0-12----12-0-12-0-12-|----12-0-12-0-0-13-12-0-10-12-0-|


 PM...................................................................|
|---------------------------------|-----------------------------------|
|---------------------------------|-----------------------------------|
|---------------------------------|-----------------------------------|
|---------------------------------|-----------------------------------|
|-----------------15--------------|-13--------------------------------|
|-13-12-0-12-0-12----12-0-12-0-12-|----12-0-12-0-0-13-12-0-10-12-0----|


 PM................................................................|
|---------------------------------|--------------------------------|
|---------------------------------|--------------------------------|
|---------------------------------|--------------------------------|
|---------------------------------|--------------------------------|
|-----------------15--------------|-13-----------------------------|
|-13-12-0-12-0-12----12-0-12-0-12-|----12-0-12-0-0-13-12-0-10-12-0-|


 PM...................................................................|
|---------------------------------|-----------------------------------|
|---------------------------------|-----------------------------------|
|---------------------------------|-----------------------------------|
|---------------------------------|-----------------------------------|
|-----------------15--------------|-13--------------------------------|
|-13-12-0-12-0-12----12-0-12-0-12-|----12-0-12-0-0-13-12-0-10-12-0----|


 PM................................................................|
|---------------------------------|--------------------------------|
|---------------------------------|--------------------------------|
|---------------------------------|--------------------------------|
|---------------------------------|--------------------------------|
|-----------------15--------------|-13-----------------------------|
|-13-12-0-12-0-12----12-0-12-0-12-|----12-0-12-0-0-13-12-0-10-12-0-|


 PM...................................................................|
|---------------------------------|-----------------------------------|
|---------------------------------|-----------------------------------|
|---------------------------------|-----------------------------------|
|---------------------------------|-----------------------------------|
|-----------------15--------------|-13--------------------------------|
|-13-12-0-12-0-12----12-0-12-0-12-|----12-0-12-0-0-13-12-0-10-12-0----|


   






 PM................................................................|
|---------------------------------|--------------------------------|
|---------------------------------|--------------------------------|
|---------------------------------|--------------------------------|
|---------------------------------|--------------------------------|
|-----------------15--------------|-13-----------------------------|
|-13-12-0-12-0-12----12-0-12-0-12-|----12-0-12-0-0-13-12-0-10-12-0-|


 PM............|
|---------------------------------|-----------------------------------|
|---------------------------------|-----------------------------------|
|---------------------------------|-----------------------------------|
|---------------------------------|-----------------------------------|
|-----------------15--------------|-13--------------------------------|
|-13-12-0-12-0-12----12-0-12-0-12-|----12-0-12-0-0-13-12-0-10-12-0----|


 PM.........|      PM.................|
|-----------------|-------------------|
|-----------------|-------------------|
|-----------------|-------------------|
|-------------0---|-------------------|
|-0-1-0-1-0-1-0---|-0-1-0-1-0-1-0-0-0-|
|-0-1-0-1-0-1-0---|-0-1-0-1-0-1-0-0-0-|


 PM.........|      PM.........|   P.H.....|
|-----------------|-----------------------|
|-----------------|-----------------------|
|-----------------|-----------------------|
|-------------0---|-------------0-[1]-----|
|-0-1-0-1-0-1-0---|-0-1-0-1-0-1-0-----[3]-|
|-0-1-0-1-0-1-0---|-0-1-0-1-0-1-0---------|


 PM.........|      PM..............................|     PM................|x2
|-----------------|-------------------|-----------------|--------------------|
|-----------------|-------------------|-----------------|-------------------o|
|-----------------|-------------------|-----------------|--------------------|
|-------------0---|-------------------|-------------0---|--------------------|
|-0-1-0-1-0-1-0---|-0-1-0-1-0-1-0-0-0-|-0-1-0-1-0-1-0---|-0-1-0-1-0-1-0-0-0-o|
|-0-1-0-1-0-1-0---|-0-1-0-1-0-1-0-0-0-|-0-1-0-1-0-1-0---|-0-1-0-1-0-1-0-0-0--|


                                                     PM....|
|---------------------------------|------------------------|
|---------------------------------|------------------------|
|---------------------------------|------------------------|
|-13-12-0-10-12-0-13-12-0-10-12-0-|-13-12-0-10-12-10-------|
|-13-12-0-10-12-0-13-12-0-10-12-0-|-13-12-0-10-12-10-0-0-0-|
|-13-12-0-10-12-0-13-12-0-10-12-0-|-13-12-0-10-12-10-0-0-0-|


|---------------------------------|-----------------------|
|---------------------------------|-----------------------|
|---------------------------------|-----------------------|
|-13-12-0-10-12-0-13-12-0-10-12-0-|-13-12-0-10-12-10-0----|
|-13-12-0-10-12-0-13-12-0-10-12-0-|-13-12-0-10-12-10-0----|
|-13-12-0-10-12-0-13-12-0-10-12-0-|-13-12-0-10-12-10-0----|

  Gtr II                                             PM....|
|---------------------------------|------------------------|
|---------------------------------|------------------------|
|---------------------------------|------------------------|
|-13-12-0-10-12-0-13-12-0-10-12-0-|-13-12-0-10-12-10-------|
|-13-12-0-10-12-0-13-12-0-10-12-0-|-13-12-0-10-12-10-0-0-0-|
|-13-12-0-10-12-0-13-12-0-10-12-0-|-13-12-0-10-12-10-0-0-0-|

  Gtr III
                                                     PM....|
|---------------------------------|------------------------|
|---------------------------------|------------------------|
|---------------------------------|------------------------|
|-13-12-0-10-12-0-13-12-0-10-12-0-|-13-12-0-10-12-10-------|
|-13-12-0-10-12-0-13-12-0-10-12-0-|-13-12-0-10-12-10-0-0-0-|
|-13-12-0-10-12-0-13-12-0-10-12-0-|-13-12-0-10-12-10-0-0-0-|


|---------------------------------|--------------------------|
|---------------------------------|--------------------------|
|---------------------------------|--------------------------|
|-13-12-0-10-12-0-13-12-0-10-12-0-|-13-12-0-10-12-10-0-------|
|-13-12-0-10-12-0-13-12-0-10-12-0-|-13-12-0-10-12-10-0-------|
|-13-12-0-10-12-0-13-12-0-10-12-0-|-13-12-0-10-12-10-0-------|
|
|                                                    PM..|
|---------------------------------|--------------------------|
|---------------------------------|--------------------------|
|---------------------------------|--------------------------|
|-13-12-0-10-12-0-13-12-0-10-12-0-|-13-12-0-10-12-10---------|
|-13-12-0-10-12-0-13-12-0-10-12-0-|-13-12-0-10-12-10-0-0-0---|
|-13-12-0-10-12-0-13-12-0-10-12-0-|-13-12-0-10-12-10-0-0-0---|


  Gtr II
   1.5____________________________________________/
|------------------------------|---------------------------------|
|------------------------------|---------------------------------|
|------------------------------|---------------------------------|
|------------------------------|---------------------------------|
|-<5---------------------------|-(<5)------------(<5)------------|
|-<5---------------------------|-(<5)------------(<5)------------|
|
| Gtr III
|------------------------------|---------------------------------|
|------------------------------|---------------------------------|
|------------------------------|---------------------------------|
|--0---------------------------|--(0)----------------------------|
|--0---------------------------|--(0)----------------------------|
|--0---------------------------|--(0)----------------------------|
|
| Gtr I
|------------------------------|---------------------------------|
|------------------------------|---------------------------------|
|------------------------------|---------------------------------|
|------------------------------|---------------------------------|
|------------------------------|---------------------------------|
|--0-----0-0-0-0-0-0-0-0-0-0-0-|---0---0-0-0-0-0---0---0-0-0-0-0-|


               1______/                 /0.5
|------------------------------------|----------------------------------|
|------------------------------------|----------------------------------|
|------------------------------------|----------------------------------|
|------------------------------------|----------------------------------|
|-(<5)-------<7----(<7)--------------|-(<7)-----------------------------|
|-(<5)-------------------------------|----------------------------------|
|
|                                        
|------------------------------------|----------------------------------|
|------------------------------------|----------------------------------|
|------------------------------------|----------------------------------|
|--(0)-------------------------------|--(0)-----------------------------|
|--(0)-------------------------------|--(0)-----------------------------|
|--(0)-------------------------------|--(0)-----------------------------|
|
|
|------------------------------------|----------------------------------|
|------------------------------------|----------------------------------|
|------------------------------------|----------------------------------|
|------------------------------------|----------------------------------|
|------------------------------------|----------------------------------|
|---0---0-0-0--0---0---0---0-0-0-0-0-|---0-----0-0-0-0-0-0-0-0-0-0-0----|


  Gtr II
           1__________/
|------------------------------------|-----------------------------|
|------------------------------------|-----------------------------|
|------------------------------------|-----------------------------|
|---------<7--------(<7)-------------|-(<7)------------------------|
|-(<7)-------------------------------|-----------------------------|
|------------------------------------|-----------------------------|
|
| Gtr I
|------------------------------------|-----------------------------|
|------------------------------------|-----------------------------|
|------------------------------------|-----------------------------|
|------------------------------------|-----------------------------|
|------------------------------------|-----------------------------|
|---0---0--0---0-0-0---0---0-0-0-0-0-|---0---0-0-0-0-0-0-0-0-0-0-0-|


    /0.5    1.5         /
|---------------------------------------|------------------------------------|
|---------------------------------------|------------------------------------|
|-----------<5---------(<5)-------------|-(<5)-----------(<5)----------------|
|-(<7)----------------------------------|------------------------------------|
|---------------------------------------|------------------------------------|
|---------------------------------------|------------------------------------|
|
|---------------------------------------|------------------------------------|
|---------------------------------------|------------------------------------|
|---------------------------------------|------------------------------------|
|---------------------------------------|------------------------------------|
|---------------------------------------|------------------------------------|
|---0-----0--0----0-0-0---0---0-0-0-0-0-|---0---0-0-0-0-0---0---0-0-0-0-0----|


  


 Gtr I
|---------------------------|------------------------------|
|---------------------------|------------------------------|
|---------------------------|------------------------------|
|---------------------------|------------------------------|
|-12-12-12-12-12-12---------|---------------12-12-12-12-12-|
|--0--0--0--0--0--0-0-0-0-0-|--0--0-0-0-0-0--0--0--0--0--0-|
|
| Gtr IV
|---------------------------|------------------------------|
|---------------------------|------------------------------|
|--9------------------------|-(9)--------------------------|
|---------------------------|------------------------------|
|---------------------------|------------------------------|
|---------------------------|------------------------------|


|---------------------------|---------------------------------|
|---------------------------|---------------------------------|
|---------------------------|---------------------------------|
|---------------------------|---------------------------------|
|-13-13-13-13-13-13---------|----------------13-13-12-12-12---|
|--0--0--0--0--0--0-0-0-0-0-|---0--0-0-0-0-0--0--0--0--0--0---|
|
|---------------------------|---------------------------------|
|---------------------------|---------------------------------|
|-10------------------------|-(10)-----------10--------9------|
|---------------------------|---------------------------------|
|---------------------------|---------------------------------|
|---------------------------|---------------------------------|


|---------------------------|------------------------------|
|---------------------------|------------------------------|
|---------------------------|------------------------------|
|---------------------------|------------------------------|
|-10-10-10-10-10-10---------|---------------10-10-12-12-12-|
|--0--0--0--0--0--0-0-0-0-0-|--0--0-0-0-0-0--0--0--0--0--0-|
|
|---------------------------|------------------------------|
|---------------------------|------------------------------|
|--7------------------------|-(7)------------9-------------|
|---------------------------|------------------------------|
|---------------------------|------------------------------|
|---------------------------|------------------------------|


|---------------------------|------------------------------|
|---------------------------|------------------------------|
|---------------------------|------------------------------|
|---------------------------|------------------------------|
|-13-13-12-12-12-12---------|-----------------------12-12--|
|--0--0--0--0--0--0-0-0-0-0-|--0--0-0-0-0-0-0-0-0-0--0--0--|
|
|---------------------------|------------------------------|
|---------------------------|------------------------------|
|-10--------------9---------|-(9)--------------------------|
|---------------------------|------------------------------|
|---------------------------|------------------------------|
|---------------------------|------------------------------|


  Gtr I
|---------------------------|------------------------------|
|---------------------------|------------------------------|
|---------------------------|------------------------------|
|-14-14-14-14-14-14---------|---------------14-14-14-14-14-|
|-12-12-12-12-12-12---------|---------------12-12-12-12-12-|
|--0--0--0--0--0--0-0-0-0-0-|--0--0-0-0-0-0--0--0--0--0--0-|
|
| Gtr IV
|                              
|---------------------------|------------------------------|
|---------------------------|------------------------------|
|--9------------------------|-(9)-------9------------------|
|---------------------------|------------------------------|
|---------------------------|------------------------------|
|---------------------------|------------------------------|
|
| Gtr II
|---------------------------|------------------------------|
|---------------------------|------------------------------|
|---------------------------|------------------------------|
|--0------------------------|-(0)--------------------------|
|--0------------------------|-(0)--------------------------|
|--0------------------------|-(0)--------------------------|


|--------------------------------|----------------------------|
|--------------------------------|----------------------------|
|--------------------------------|----------------------------|
|-14--14-14-14-14-15-15-15-15-15-|--15------------------------|
|-13--13-13-13-13-13-13-13-13-13-|--13------------------------|
|--0---0--0--0--0--0--0--0--0--0-|---0--0-0-0-0-0-0-0-0-0-0---|
|
|--------------------------------|----------------------------|
|--------------------------------|----------------------------|
|-10-----------------------------|-(10)-----------------------|
|--------------------------------|----------------------------|
|--------------------------------|----------------------------|
|--------------------------------|----------------------------|
|
|--------------------------------|----------------------------|
|--------------------------------|----------------------------|
|--------------------------------|----------------------------|
|-(0)----------------------------|--(0)-----------------------|
|-(0)----------------------------|--(0)-----------------------|
|-(0)----------------------------|--(0)-----------------------|














|----------------------------|---------------------------------------|
|----------------------------|---------------------------------------|
|-12--12-12-12-12-12---------|------------------12---12-----12-12-12-|
|----------------------------|---------------------------------------|
|-10--10-10-10-10-10---------|------------------10---10-----10-10-10-|
|--0---0--0--0--0--0-0-0-0-0-|-0-0--0-----0-0-0--0----0------0--0--0-|
|
|                                   .5/             .5/
|----------------------------|---------------------------------------|
|----------------------------|---------------------------------------|
|--7-------------------------|-7---(7)-----------9---(9)-------------|
|----------------------------|---------------------------------------|
|----------------------------|---------------------------------------|
|----------------------------|---------------------------------------|
|
|                             PM.....................................|
|----------------------------|---------------------------------------|
|----------------------------|---------------------------------------|
|----------------------------|---------------------------------------|
|-(0)------------------------|---------------------------------------|
|-(0)------------------------|-0-0--0-----0-0-0--0-0--0------0--0--0-|
|-(0)------------------------|-0-0--0-----0-0-0--0-0--0------0--0--0-|


        
|---------------------------------------|-------------------------------------
|---------------------------------------|-------------------------------------
|-14---14-14-14-14-14---14-----14-14-14-|-15---15-15-15-15-15s7-17--17-17-17-
|---------------------------------------|-------------------------------------
|-12---12-12-12-12-12---12-----12-12-12-|-13---13-13-13-13-13s5-15--15-15-15-
|--0----0--0--0--0--0----0------0--0--0-|--0----0--0--0--0--0--0--------------
|
|                  .5/                                  .5/                                                                
| .5/
|---------------------------------------|-------------------------------------
|---------------------------------------|-------------------------------------
|-10----------------9p===7--------------|--9----------------7----(7)-------(7)
|---------------------------------------|-------------------------------------
|---------------------------------------|-------------------------------------
|---------------------------------------|-------------------------------------
|
|                                               
|-----------------------------------------------------------------------------
|---------------------------------------|-------------------------------------
|---------------------------------------|-------------------------------------
|---------------------------------------|-------------------------------------
|---------------------------------------|-------------------------------------
|--0-0--0--0--0--0--0-0--0------0--0--0-|--0-0--0--0--0--0--0--0--0---0--0--0-
|--0-0--0--0--0--0--0-0--0------0--0--0-|--0-0--0--0--0--0--0--0--0---0--0--0-












|---------------------------|------------------------------|
|---------------------------|------------------------------|
|---------------------------|------------------------------|
|-14-14-14-14-14-14---------|---------------14-14-14-14-14-|
|-12-12-12-12-12-12---------|---------------12-12-12-12-12-|
|--0--0--0--0--0--0-0-0-0-0-|--0--0-0-0-0-0--0--0--0--0--0-|
|
|---------------------------|------------------------------|
|---------------------------|------------------------------|
|--9------------------------|-(9)--------------------------|
|---------------------------|------------------------------|
|---------------------------|------------------------------|
|---------------------------|------------------------------|
|
|           PM.|        PM.|            PM.|          PM.|
|---------------------------|------------------------------|
|---------------------------|------------------------------|
|---------------------------|------------------------------|
|-14-------------14---------|-14------------14-------------|
|-12-------------12---------|-12------------12-------------|
|-----------0-0---------0-0-|-----------0-0-----------0-0--|


|-------------------------------|------------------------------|
|-------------------------------|------------------------------|
|-------------------------------|------------------------------|
|-14-14-14-14-14-15-15-15-15-15-|--15--------------------------|
|-13-13-13-13-13-13-13-13-13-13-|--13--------------------------|
|--0--0--0--0--0--0--0--0--0--0-|---0--0-0-0-0--0-0-0-0--0-0---|
|
|-------------------------------|------------------------------|
|-------------------------------|------------------------------|
|-10----------------------------|-(10)---------10s======12-----|
|-------------------------------|------------------------------|
|-------------------------------|------------------------------|
|-------------------------------|------------------------------|
|
|           PM.|           PM.|            PM.|          PM.|
|-------------------------------|------------------------------|
|-------------------------------|------------------------------|
|-------------------------------|------------------------------|
|-14-------------15-------------|--15----------15--------------|
|-13-------------13-------------|--13----------13--------------|
|-----------0-0-------------0-0-|----------0-0-----------0-0---|

















|---------------------------|-----------------------------|
|---------------------------|-----------------------------|
|-12-12-12-12-12-12---------|--------------12-12-12-12-12-|
|---------------------------|-----------------------------|
|-10-10-10-10-10-10---------|--------------10-10-10-10-10-|
|--0--0--0--0--0--0-0-0-0-0-|--0-0-0-0-0-0--0--0--0--0--0-|
|
|---------------------------|-----------------------------|
|---------------------------|-----------------------------|
|-12------------------------|-12--------------------------|
|---------------------------|-----------------------------|
|---------------------------|-----------------------------|
|---------------------------|-----------------------------|
|
|           PM.|        PM.|           PM.|          PM.|
|---------------------------|-----------------------------|
|---------------------------|-----------------------------|
|---------------------------|-----------------------------|
|-12-------------12---------|-12-----------12-------------|
|-10-------------10---------|-10-----------10-------------|
|-----------0-0---------0-0-|----------0-0-----------0-0--|


      
|-------------------------------|------------------------------------|
|-------------------------------|------------------------------------|
|-14-14-14-14-14-14-14-14-14-14-|-15-15-15-15-15-15s17-17-17-17-17---|
|-------------------------------|------------------------------------|
|-12-12-12-12-12-12-12-12-12-12-|-13-13-13-13-13-13s15-15-15-15-15---|
|--0--0--0--0--0--0--0--0--0--0-|--0--0--0--0--0--0--0---------------|
|
|-------------------------------|------------------------------------|
|-------------------------------|------------------------------------|
|-14----------------------------|-15-------------17------------------|
|-------------------------------|------------------------------------|
|-------------------------------|------------------------------------|
|-------------------------------|------------------------------------|
|
|-------------------------------|------------------------------------|
|-------------------------------|------------------------------------|
|-14-14-14-------14-14-14-------|-15-15-15-15-15-15s17-17-17-17-17---|
|-------------------------------|------------------------------------|
|-12-12-12-------12-12-12-------|-13-13-13-13-13-13s15-15-15-15-15---|
|--0--0--0--------0--0--0-------|--0--0--0--0--0--0------------------|


    Gtrs II, III
    PM.........|     PM.................|
||------------------|-------------------|
||o-----------------|-------------------|
||------------------|-------------------|
||--------------0---|-------------------|
||o-0-1-0-1-0-1-0---|-0-1-0-1-0-1-0-0-0-|
||--0-1-0-1-0-1-0---|-0-1-0-1-0-1-0-0-0-|


 






 PM..........|     PM..........|  P.H....|  3x
|-----------------|-------------------------||
|-----------------|------------------------o||
|-----------------|-------------------------||
|-------------0---|-------------0-[1]-------||
|-0-1-0-1-0-1-0---|-0-1-0-1-0-1-0-----[3]--o||
|-0-1-0-1-0-1-0---|-0-1-0-1-0-1-0-----------||


  PM........|      PM.............................|      PM.................|
|-----------------|-------------------|-----------------|-------------------|
|-----------------|-------------------|-----------------|-------------------|
|-----------------|-------------------|-----------------|-------------------|
|-------------0---|-------------------|-------------0---|-------------------|
|-0-1-0-1-0-1-0---|-0-1-0-1-0-1-0-0-0-|-0-1-0-1-0-1-0---|-0-1-0-1-0-1-0-0-0-|
|-0-1-0-1-0-1-0---|-0-1-0-1-0-1-0-0-0-|-0-1-0-1-0-1-0---|-0-1-0-1-0-1-0-0-0-|


                                                     PM...|
|---------------------------------|------------------------|
|---------------------------------|------------------------|
|---------------------------------|------------------------|
|-13-12-0-10-12-0-13-12-0-10-12-0-|-13-12-0-10-12-10-------|
|-13-12-0-10-12-0-13-12-0-10-12-0-|-13-12-0-10-12-10-0-0-0-|
|-13-12-0-10-12-0-13-12-0-10-12-0-|-13-12-0-10-12-10-0-0-0-|


|---------------------------------|-----------------------|
|---------------------------------|-----------------------|
|---------------------------------|-----------------------|
|-13-12-0-10-12-0-13-12-0-10-12-0-|-13-12-0-10-12-10-0----|
|-13-12-0-10-12-0-13-12-0-10-12-0-|-13-12-0-10-12-10-0----|
|-13-12-0-10-12-0-13-12-0-10-12-0-|-13-12-0-10-12-10-0----|


                                                     PM....|
|---------------------------------|------------------------|
|---------------------------------|------------------------|
|---------------------------------|------------------------|
|-13-12-0-10-12-0-13-12-0-10-12-0-|-13-12-0-10-12-10-------|
|-13-12-0-10-12-0-13-12-0-10-12-0-|-13-12-0-10-12-10-0-0-0-|
|-13-12-0-10-12-0-13-12-0-10-12-0-|-13-12-0-10-12-10-0-0-0-|


                                                     PM...|
|---------------------------------|------------------------|---------|
|---------------------------------|------------------------|---------|
|---------------------------------|------------------------|---------|
|-13-12-0-10-12-0-13-12-0-10-12-0-|-13-12-0-10-12-10-------|-0-------|
|-13-12-0-10-12-0-13-12-0-10-12-0-|-13-12-0-10-12-10-0-0-0-|-0-------|
|-13-12-0-10-12-0-13-12-0-10-12-0-|-13-12-0-10-12-10-0-0-0-|-0-------|






Tablature Legend
----------------
 h   - hammer-on
 p   - pull-off
 b   - bend
 pb  - pre-bend
 r   - bend release (if no number after the r, then release immediately)
 /  - slide into or out of (from/to "nowhere")
 s   - legato slide
 S   - shift slide
 - natural harmonic
[n]  - artificial harmonic
n(n) - tapped harmonic
 ~   - vibrato
 tr  - trill
 T   - tap
 TP  - trem. picking
 PM  - palm muting
n/  - tremolo bar dip; n = amount to dip
 n  - tremolo bar down
 n/  - tremolo bar up
/n  - tremolo bar inverted dip
 =   - hold bend; also acts as connecting device for hammers/pulls
 <> - volume swell (louder/softer)
 x   - on rhythm slash represents muted slash
 o   - on rhythm slash represents single note slash

Misc Legend
-----------
 |  - bar
||  - double bar
||o - repeat start
o|| - repeat end
*|  - double bar (ending)
 :  - bar (freetime)
 $  - Segno
 &  - Coda
Tempo markers -  = BPM(8/16=s8/s16), where s8 = swing 8ths,
s16 = swing 16ths
Show more