Band: Creed
Song: Bullets
Album: Weathered
Bassist: Mark Tremonti(Brian Marshall didn't play on this album)
Written by Scott Stapp, Mark Tremonti and Scott Phillips


Bass doesnt play intro

Verse (0:47)
G-------------------------------------
D-------------------------------------	X2
A-------------------------------------
D-120-00-00--1-0-00-00-120-00-00-1b---

Verse 2 (0:59, 1:34)
G-------------------------------------
D-------------------------------------	X2
A-------------------------------------
D-120-00-00--1-0-00-00-120-00-00-1b---

1st Chorus (1:23, 1:58)
G---------------------------------------------------------------
D----------------------------------------------------------1----	X1
A------------------------------------------------------------3--
D-0h1-0h1-0h1-0-0h1-0h1-0h1-000-0h1-0h1-0h1-0-0h1-0h1-0h1-0-----

2nd Chorus
G--------------------------------------------------------------
D--------------------------------------------------------------	  X1
A--------------------------------------------------------------
D-0h1-0h1-0h1-0-0h1-0h1-0h1-000-0h1-0h1-0h1-0-0h1-0h1-0h1-000--

Bridge  (2:10)
G--------------------------------
D--------------------------------	X1
A--------------------------------
D-12----000----0----000----000--

Intelude  (2:22)
G-----------------------------------------------------
D-----------------------------------------------------	 X7
A-----------------------------------------------------
D-00-0-000000-0-00000-0000-0-00-00-00-0-000000000000--

3rd Chorus (3:09)
G----------------------------------------------------------------
D-----------------------------------------------------------1----	X3
A-------------------------------------------------------------3--
D-0h1-0h1-0h1-0-0h1-0h1-0h1-000-0h1-0h1-0h1-0-0h1-0h1-0h1-0------

G--------------------------------------------------------------
D--------------------------------------------------------------	  X1
A--------------------------------------------------------------
D-0h1-0h1-0h1-0-0h1-0h1-0h1-000-0h1-0h1-0h1-0-0h1-0h1-0h1-000--

Outro (3:32)
G--------------------------------------------------------------------------------
D-------------------------------------------------------------------------------- X1
A--------------------------------------------------------------------------------
D-0----000----0----000-13-12-0-10-12-0-13-12-0-10-12-0-13-12-0-10-12-10-0-0-0-0--
Show more