Hey all you people out there. I did nto trancsribe all of this song by myself, but from a little help from Adam,(I can't remember his last name, or his username) who is the guy that trancsribed this. I added a lot of stuff, corrected some areas where he was wrong, and made it a it a little more easier to read. It took me forever to get it down the way he had it written out, so I thought that I could not be the only one havign trouble. Well then, here is one of the best songs - Faceless Man by Creed.

Intro / Verse
Play 7x Finger Picking
D|--7p0--------0---------------------------------
D|--0----810-----10-----------------------------
A|--------------------0--9h10--1012-12----------
D|--------------------------------------0--------
A|-----------------------------------------0-----
D|--0--------------------0--------------------0--
4th Time
D|--7p0---8--------0------0-----------|
D|---------------0------0-------------|
A|------0--0---9-----10-----12/13 12--|
D|-----------0------------------------|
A|------------------------------------|
D|------------------------------------|

8th Time
D|--7p0--------0--------------------------------
D|--0----810-----10----------------------------
A|--------------------0--9h10-10p9--9-----------
D|-------------------------------------0--------
A|----------------------------------------0-----
D|--0--------------------0-------------------0--

Chorus
Play 2x
D|--0--0-0-0--0-0-0-0--5-0-0--5--5-5-5--5-5-5/45-5/7-7-74--4-4--4-
D|--0--0-0-0--0-0-0-0--5-0-0--0--0-0-0--0-0-0-0-0-0-0-0-0-0--0-0--0-
A|--5--5-5-5--5-5-5-5--5-5-0--0--0-0-0--0-0-0-0-0-0-0-0-0-0--0-0--0-
D|--5--5-5-5--5-5-5-5--5-5-0--0--0-0-0--0-0-0-0-0-0-0-0-0-0--0-0--0-
A|--3------3--------3--3------0------0--0-----0-0-0-0-0-0-0--0-0--0-
D|--x------x--------x---------5------5--5----/45-5/7-7-7-0--0-0--0-

D|--54-4-4-4-4-4--4-4--4-54-4-4-4-4-4--4-4--4--
D|--0-0-0-0-0-0-0--0-0--0-0-0-0-0-0-0-0--0-0--0--
A|--0-0-0-0-0-0-0--0-0--0-0-0-0-0-0-0-0--0-0--0--
D|--0-0-0-0-0-0-0--0-0--0-0-0-0-0-0-0-0--0-0--0--
A|--0-0-0-0-0-0-0--0-0--0-0-0-0-0-0-0-0--0-0--0--
D|--54-4-4-4-4-0--0-0--0-54-4-4-4-4-0--0-0--0--

Play 2x
D|---------------0-----------0----5--5-5-5--5-5-5/45-5/7-7-74--4-4--
D|-------------0---------------0--0--0-0-0--0-0-0-0-0-0-0-0-0-0--0-0--
A|-----------5-------------5------0--0-0-0--0-0-0-0-0-0-0-0-0-0--0-0--
D|---------5-------5-----5--------0--0-0-0--0-0-0-0-0-0-0-0-0-0--0-0--
A|--(3)-3-------------3-----------0------0--0-----0-0-0-0-0-0-0--0-0--
D|--------------------------------5------5--5----/45-5/7-7-7-0--0-0--


D|--4--54-4-4-4-4-4--4-4--4-54-4-4-4-4-4--4-4--4--
D|--0--0-0-0-0-0-0-0--0-0--0-0-0-0-0-0-0-0--0-0--0--
A|--0--0-0-0-0-0-0-0--0-0--0-0-0-0-0-0-0-0--0-0--0--
D|--0--0-0-0-0-0-0-0--0-0--0-0-0-0-0-0-0-0--0-0--0--
A|--0--0-0-0-0-0-0-0--0-0--0-0-0-0-0-0-0-0--0-0--0--
D|--0--54-4-4-4-4-0--0-0--0-54-4-4-4-4-0--0-0--0--

Play 7x With Pick
D|--7p0--------0-------------------------
D|-------810-----10---------------------
A|--------------------0--9h10--1012-12--
D|---------------------------------------
A|---------------------------------------
D|---------------------------------------

8th Time With Pick
D|--7p0--------0-----------------------
D|-------810-----10-------------------
A|--------------------0--9h10-10p9--9--
D|-------------------------------------
A|-------------------------------------
D|-------------------------------------

Chorus
Play 2x
D|--0--0-0-0--0-0-0-0--5-0-0--5--5-5-5--5-5-5/45-5/7-7-74--4-4--4-
D|--0--0-0-0--0-0-0-0--5-0-0--0--0-0-0--0-0-0-0-0-0-0-0-0-0--0-0--0-
A|--5--5-5-5--5-5-5-5--5-5-0--0--0-0-0--0-0-0-0-0-0-0-0-0-0--0-0--0-
D|--5--5-5-5--5-5-5-5--5-5-0--0--0-0-0--0-0-0-0-0-0-0-0-0-0--0-0--0-
A|--3------3--------3--3------0------0--0-----0-0-0-0-0-0-0--0-0--0-
D|--x------x--------x---------5------5--5----/45-5/7-7-7-0--0-0--0-


D|--54-4-4-4-4-4--4-4--4-54-4-4-4-4-4--4-4--4--
D|--0-0-0-0-0-0-0--0-0--0-0-0-0-0-0-0-0--0-0--0--
A|--0-0-0-0-0-0-0--0-0--0-0-0-0-0-0-0-0--0-0--0--
D|--0-0-0-0-0-0-0--0-0--0-0-0-0-0-0-0-0--0-0--0--
A|--0-0-0-0-0-0-0--0-0--0-0-0-0-0-0-0-0--0-0--0--
D|--54-4-4-4-4-0--0-0--0-54-4-4-4-4-0--0-0--0--


D|-----------0------------0-------5--5-5-5--5-5-5/45/7-7-74--4-4-
D|-------------0------------0-----0--0-0-0--0-0-0-0-0-0-0-0-0--0-0-
A|---------5-----5------5-----5---0--0-0-0--0-0-0-0-0-0-0-0-0--0-0-
D|-----5--------------5---------0-0--0-0-0--0-0-0-0-0-0-0-0-0--0-0-
A|--3----3---------3--------------0------0--0-----0-0-0-0-0-0--0-0-
D|--------------------------------5------5--5----/45/7-7-7-0--0-0-


D|--4--54-4-4-4-4-4--4-4--4-54-4-4-4-4-4--4-4--4--
D|--0--0-0-0-0-0-0-0--0-0--0-0-0-0-0-0-0-0--0-0--0--
A|--0--0-0-0-0-0-0-0--0-0--0-0-0-0-0-0-0-0--0-0--0--
D|--0--0-0-0-0-0-0-0--0-0--0-0-0-0-0-0-0-0--0-0--0--
A|--0--0-0-0-0-0-0-0--0-0--0-0-0-0-0-0-0-0--0-0--0--
D|--0--54-4-4-4-4-0--0-0--0-54-4-4-4-4-0--0-0--0--


D|------------0-------------0----5--5-5-5-5-5-5-5-5-5-5-5--
D|--------------0-------------0--0--0-0-0-0-0-0-0-0-0-0-0--
A|----------5-------------5------0--0-0-0-0-0-0-0-0-0-0-0--
D|--------5-------5-----5--------0--0-0-0-0-0-0-0-0-0-0-0--
A|-(3)-3-------------3-----------0----0---0---0---0---0----
D|-------------------------------5----5---5---5---5---5----

With Distortion
    I       Fill #1           II      Fill #2
D|-------------|---------| |-------------|---------|
D|-------------|---------| |-------------|---------|
A|-------------|---------| |-------------|---------|
D|--0--0-0--0--|-4h5p4-4-| |--0--0-0--0--|-5h7p7-7-|
A|--0--0-0--0--|---------| |--0--0-0--0--|---------|
D|--0--0-0--0--|---------| |--0--0-0--0--|---------|

III
D|-----------------------------------------------------------------|
D|-----------------------------------------------------------------|
A|--5--5-5-5--5-5-5-5--5-5-5-0-------------------------------------|
D|--5--5-5-5--5-5-5-5--5-5-5-0--5--5-5-5--5-5-5-5--5-5-5-5------0--|
A|--3--3-3-3--3-3-3-3--3-3-3-0--5--5-5-5--5-5-5-5--5-5-5-5--0-0-0--|
D|--x--x-x-x--x-x-x-x--x-x-x-0--5--5-5-5--5-5-5-5--5-5-5-5--0-0-0--|


Fill #3
D|-------------------------------------------------------------------|
D|-------------------------------------------------------------------|
A|--------------------------------------------------------9----------|
D|--------------------------------------9---------9-10------12---0-0-|
A|---------9~ -------9h10-10-10-9-10-12---10-12--------12--------0-0-|
D|-9h10-12-----10h12---------------------------------------------0-0-|

III
D|-----------------------------------------------------------------|
D|-----------------------------------------------------------------|
A|--5--5-5-5--5-5-5-5--5-5-5-0-------------------------------------|
D|--5--5-5-5--5-5-5-5--5-5-5-0--5--5-5-5--5-5-5-5--5-5-5-5------0--|
A|--3--3-3-3--3-3-3-3--3-3-3-0--5--5-5-5--5-5-5-5--5-5-5-5--0-0-0--|
D|--x--x-x-x--x-x-x-x--x-x-x-0--5--5-5-5--5-5-5-5--5-5-5-5--0-0-0--|

Fill #3
D|-------------------------------------------------------------------|
D|-------------------------------------------------------------------|
A|--------------------------------------------------------9----------|
D|--------------------------------------9---------9-10------12---0-0-|
A|---------9~ -------9h10-10-10-9-10-12---10-12--------12--------0-0-|
D|-9h10-12-----10h12---------------------------------------------0-0-|

III
D|-----------------------------------------------------------------|
D|-----------------------------------------------------------------|
A|--5--5-5-5--5-5-5-5--5-5-5-0-------------------------------------|
D|--5--5-5-5--5-5-5-5--5-5-5-0--5--5-5-5--5-5-5-5--5-5-5-5------0--|
A|--3--3-3-3--3-3-3-3--3-3-3-0--5--5-5-5--5-5-5-5--5-5-5-5--0-0-0--|
D|--x--x-x-x--x-x-x-x--x-x-x-0--5--5-5-5--5-5-5-5--5-5-5-5--0-0-0--|

    I       Fill #1           II      Fill #2
D|-------------|---------| |-------------|---------|
D|-------------|---------| |-------------|---------|
A|-------------|---------| |-------------|---------|
D|--0--0-0--0--|-4h5p4-4-| |--0--0-0--0--|-5h7p7-7-|
A|--0--0-0--0--|---------| |--0--0-0--0--|---------|
D|--0--0-0--0--|---------| |--0--0-0--0--|---------|

III
D|-----------------------------------------------------------------|
D|-----------------------------------------------------------------|
A|--5--5-5-5--5-5-5-5--5-5-5-0-------------------------------------|
D|--5--5-5-5--5-5-5-5--5-5-5-0--5--5-5-5--5-5-5-5--5-5-5-5------0--|
A|--3--3-3-3--3-3-3-3--3-3-3-0--5--5-5-5--5-5-5-5--5-5-5-5--0-0-0--|
D|--x--x-x-x--x-x-x-x--x-x-x-0--5--5-5-5--5-5-5-5--5-5-5-5--0-0-0--|


    I       Fill #1           II      Fill #2
D|-------------|---------| |-------------|---------|
D|-------------|---------| |-------------|---------|
A|-------------|---------| |-------------|---------|
D|--0--0-0--0--|-4h5p4-4-| |--0--0-0--0--|-5h7p7-7-|
A|--0--0-0--0--|---------| |--0--0-0--0--|---------|
D|--0--0-0--0--|---------| |--0--0-0--0--|---------|


Fill #4 (Play Over Clean Part)
D|--11-12-14-11-12-14-11-12-14-14p12p11-12-12-12-12-12-12-12--
D|---0--0--0--0--0--0--0--0--0--0--------0--0--0--0--0--0--0--
A|---0--0--0--0--0--0--0--0--0--0--------0--0--0--0--0--0--0--
D|---0--0--0--0--0--0--0--0--0--0--------0--0--0--0--0--0--0--
A|------------------------------------------------------------
D|------------------------------------------------------------

Play 2x
D|---------0-----------0----5--5-5-5--5-5-5/45-5/7-7-74--4-4--4--
D|-------0---0-----------0--0--0-0-0--0-0-0-0-0-0-0-0-0-0--0-0--0--
A|-----0-------0-----0------0--0-0-0--0-0-0-0-0-0-0-0-0-0--0-0--0--
D|--------------------------0--0-0-0--0-0-0-0-0-0-0-0-0-0--0-0--0--
A|--4-------------4---------0------0--0-----0-0-0-0-0-0-0--0-0--0--
D|--------------------------5------5--5----/45-5/7-7-7-0--0-0--0--

d--54-4-4-4-4-4--4-4--4-54-4-4-4-4-4--4-4-4--
d--0-0-0-0-0-0-0--0-0--0-0-0-0-0-0-0-0--0-0-0--
A--0-0-0-0-0-0-0--0-0--0-0-0-0-0-0-0-0--0-0-0--
D--0-0-0-0-0-0-0--0-0--0-0-0-0-0-0-0-0--0-0-0--
A--0-0-0-0-0-0-0--0-0--0-0-0-0-0-0-0-0--0-0-0--
D--54-4-4-4-4-0--0-0--0-54-4-4-4-4-0--0-0-0--

			   Begin Strumming
D|--0--0-0-0--0-0-0-0--0--|---5-----------
D|--0--0-0-0--0-0-0-0--0--|---0-----------
A|--4--4-4-4--4-4-4-4--0--|---0-----------
D|--4--4-4-4--4-4-4-4--0--|---0-----------
A|--2--2-2-2--2-2-2-2-----|---0-----------
D|------------------------|---5-----------

2nd Verse
D|-----|-----|-----|-----|-----|-----
D|-----|-----|-----|-----|-----|-----
A|--5--|-----|-----|--4--|-----|-----
D|--5--|--5--|--0--|--4--|--5--|--0--
A|--3--|--5--|--0--|--2--|--5--|--0--
D|--x--|--5--|--0--|--x--|--5--|--0--

Email anything to - thenemesis@ev1.net
Show more