BITCHIN' TABS

          URL: www.angelfire.com/goth/btab/
	EMAIL: btabmaster@hotmail.com

        THIS IS AN EXCLUSIVE TAB TO "BITCHIN' TABS"

 ----------------------------------------------------------------------------------------------

	     SONG: Freedom Fighter
	     BAND: Creed
	    ALBUM: Weathered
   TRANSCRIBED BY: Chris Frazier (btabmaster@hotmail.com)
	     DATE: 11-23-2K1

 ----------------------------------------------------------------------------------------------

	TUNING: Drop D (D A D G B E)

     Riff 1:
    E|----------------------|-------------------------|---------------------|
    B|----------------------|-------------------------|---------------------|
    G|----------------------|-------------------------|---------------------| p=pull off
    D|-0-0--------0-0-----3-|-0-0-------6p5p3---3-----|-6b-6b-6p5p3---3-----| h=hammer on
    A|-0-0-----3--0-0-3-5---|-0-0-----3-------5---5-3-|-------------5---5-3-| b=bend
    D|-0-0-5-6----0-0-------|-0-0-5-6-----------------|---------------------|

     Riff 2:
    E|----------------------|-------------------------|---------------------|
    B|----------------------|-------------------------|---------------------|
    G|----------------------|-------------------------|---------------------| PM=palm mute
    D|--------------------3-|-----------6p5p3---3-----|-6b-6b-6p5p3---3-----|
    A|---------3------3-5---|---------3-------5---5-3-|-------------5---5-3-|
    D|-0-0-5-6----0-0-------|-0-0-5-6-----------------|---------------------|
     PM- - - - -  - - - - -   - - - - -

     Riff 3:
    E|------------------------------------------------------------------------------|
    B|------------------------------------------------------------------------------|
    G|----------5-5-5-5--4-4-4-4--------------------2-2-2-2-------------------------|
    D|-0-0-0-0--5-5-5-5--4-4-4-4--5-5-4-4--3-3-3-3--2-2-2-2--2-2-2-2--5-3-0-3-0-----|
    A|-0-0-0-0--3-3-3-3--2-2-2-2--5-5-4-4--3-3-3-3--0-0-0-0--2-2-2-2--5-3-0-3-0-----|
    D|-0-0-0-0--------------------5-5-4-4--3-3-3-3-----------2-2-2-2--5-3-0-3-0-----|

     Riff 4:
    E|-------------------------------------------|
    B|-------------------------------------------|
    G|-------------------------------------------|
    D|-0-x-x-x-x-0-x-x-x-x-0-x-x-x-x-9-7-5-7-8-7-|
    A|-0-x-x-x-x-0-x-x-x-x-0-x-x-x-x-9-7-5-7-8-7-|
    D|-0-x-x-x-x-0-x-x-x-x-0-x-x-x-x-9-7-5-7-8-7-|

     Riff 5: bass plays open notes b/t each section of riff 5
    E|-------------|-------------------|-------------|
    B|-------------|-------------------|-------------|
    G|-------------|-------------------|-------------|
    D|-------------|-------------------|-9-8-7-5-7-5-|
    A|-------------|-2-----------------|-9-8-7-5-7-5-|
    D|-9-8-7-5-7-5-|---5b--9-8-7-5-7-5-|-9-8-7-5-7-5-|

     Riff 6:
    E|---------------------------------------------------|
    B|---------------------------------------------------|
    G|---------------------------------------------------| (x)=played last time
    D|-0--0h2p0------0--0h2p0-----0--0h2p00------1-1-(3)-|
    A|-0--------3-0--0--------3-0-0---------3-0--1-1-(3)-|
    D|-0-------------0------------0--------------1-1-(3)-|

     Riff 7:
    E|---------------------------|
    B|---------------------------|
    G|---------------------------|
    D|-5-3-0-3--0--5-3-0-3--0--0-|
    A|-5-3-0-3--0--5-3-0-3--0--0-|
    D|-5-3-0-3--0--5-3-0-3--0--0-|
     PM- - -       - - -       -
Show more