Creed-Higher
-Drop D Tuning-
-Inlyghtened1-

-Intro-
E------------------------------------------------------------------------------------
B------------------------------------------------------------------------------------
G-7-7--7-7-9-9-9/11-11-12-11-11h12p11-9-9-9-9-11-11-9-9-11-97-7-7-9-9-7-7-7-7-7-----
D-0-0--0-0-0-0-0----0--0--0--0--------0-0-7-7-7--7--7-7-7--75-5-5-5-5-5-5-5-5-5-0-0-
A-0-0--0-0-0-0-0----0--0--0--0--------0-0-7-7-7--7--7-7-7--75-5-5-5-5-5-5-5-5-5-0-0-
D-0-0--0-0-0-0-0----0--0--0--0--------0-0-7-7-7--7--7-7-7--75-5-5-5-5-5-5-5-5-5-0-0-

                          
E-------------------------0---------------------------
B--8p7-7--7-5h7-7--7-8p7--3---------------------------
G--7---7--7-7---7--7-7----2---------------------------
D--0---0--0-0---0--0-0----0---------------------------
A-------------------------0---------------------------
D-----------------------------------------------------


-Verse-
E-----------------------------------------------------------------------------------
B---3---3--3-3-3-3--3--3-3-----------------------------------3---3--3---------------
G---2---2--2-2-2-2--2--2-2------------7---7--7-7-7--7-7-7-7--2---2--2---------------
D---0---0--0-0-0-0--0--0-0------------7---7--7-7-7--7-7-7-7--0---0--0--0------------
A---0---0--0-0-0-0--0--0-0------------5---5--5-5-5--5-5-5-5--0---0--0--0-------------
D---0---0--0-0-0-0--0--0-0------------5---5--5-5-5--5-5-5-5--0---0--0--0------------

E------------------------------------------------------------0---------------
B---------------------------3---3--3---------------------------0-------------
G---7---7--7-7-7--7--7-7-7--2---2--2-----------------7--7--------7--7-7-7-7--
D---5---5--5-5-5--7--7-7-7--0---0--0-0---------------7--7-----------7-7-7-7--
A---5---5--5-5-5--5--5-5-5--0---0--0-0---------------5--5-----------5-5-5-5--
D---5---5--5-5-5--5--5-5-5--0---0--0-0---------------5--5-----------5-5-5-5--


-Pre Chorus-
E--------------------------------------------------------------------
B--------------------------------------------------------------------
G--------------------------------------------------------------------
D---4-4-4-4-4-4-4-4-4-4-4-4-4-4-4-4-5-5-5-5-5-5-5-5-5-5-5-5-5-5-5-5--
A---5-5-5-5-5-5-5-5-5-5-5-5-5-5-5-5-5-5-5-5-5-5-5-5-5-5-5-5-5-5-5-5--
D---4-4-4-4-4-4-4-4-4-4-4-4-4-4-4-4-5-5-5-5-5-5-5-5-5-5-5-5-5-5-5-5--



E------------------------------------------------------------------------
B------------------------------------------------------------------------
G-------------------------------------------7---7------------------------
D---4-4-4-4-4-4-4-4-4-4-4-4-4-4-4-4-5-5-5-5-7---5/17-17-17-17-17-17--17--
A---5-5-5-5-5-5-5-5-5-5-5-5-5-5-5-5-5-5-5-5-5---5/17-17-17-17-17-17--17--
D---4-4-4-4-4-4-4-4-4-4-4-4-4-4-4-4-5-5-5-5-5---5/17-17-17-17-17-17--17--


-Chorus-
E--------------------------------------------------------
B---3--3-3--2--2-2-3-------------------------------------
G---2--2-2--2--2-2-2-----7---------------2-3-5p3p2-3-----
D---0--0-0--0--0-0-0-----7--4--0-0--0-0---------------0--
A---0--0-0--0--0-0-0-----5--4--0-0--0-0---------------0--
D---0--0-0---------0-----5--4--0-0--0-0---------------0--

E-------------------------------------------------
B---3--3-3--2--2-2-3------------------------------
G---2--2-2--2--2-2-2-----7------------------------
D---0--0-0--0--0-0-0-----7--4--0-0--0-0---4b---0--
A---0--0-0--0--0-0-0-----5--4--0-0--0-0-----------
D---0--0-0---------0-----5--4--0-0--0-0-----------



-Bridge-
E---------------------------------------------------------------
B---------------------------------------------------------------
G---------------------------------------------------------------
D---0--0--0--0-0--0-0-0-0-0-0--7----7---7---7---7---7---7---7---
A---0--0--0--0-0--0-0-0-0-0-0--7----7---7---7---7---7---7---7---
D---0--0--0--0-0--0-0-0-0-0-0--7----7---7---7---7---7---7---7---

E----------------------------------------------------------
B----------------------------------------------------------
G----------------------------------------------------------
D---5---5--5--5-5--5--5-5-5-5-0-0-5-0--0-0-5-0--0-0-5-0-0--
A---5---5--5--5-5--5--5-5-5-5-0-0-5-0--0-0-5-0--0-0-5-0-0--
D---5---5--5--5-5--5--5-5-5-5-0-0-5-0--0-0-5-0--0-0-5-0-0--
Show more