Drop D tuning
Intro
e|---------------------------------------------------------------------
B|---------------------------------------------------------------------
G|7-7-7-7-9-9-9/11-9-11-12--9-11-12-9-11--7-7-9-9-7--12-11-11-9/11-11-7
D|0-0-0-0-0-0-0-0-0-0-0-0---7-7-7-7-7-7-7-5-5-5-5-5---0-0-0-0-0-0-0-0-0
A|0-0-0-0-0-0-0-0-0-0-0-0---7-7-7-7-7-7-7-5-5-5-5-5---0-0-0-0-0-0-0-0-0
D|0-0-0-0-0-0-0-0-0-0-0-0---7-7-7-7-7-7-7-5-5-5-5-5---0-0-0-0-0-0-0-0-0

Verse:
e|5-5-5-----------5-5-5-5-5------0-----0----
B|3-3-3-----------3-3-3-3-3--------0-----0--
G|2-2-2-7-7-7-7-7-2-2-2-2-2--0/7-----7-----0
D|0-0-0-5-5-5-5-5-0-0-0-0-0-----------------
A|------5-5-5-5-5---------------------------
D|------5-5-5-5-5---------------------------

Prechorus: (so lets go there...) 
  P.M.------------------------------------------------------------->
e|---------------------------------------------------------------------
B|---------------------------------------------------------------------
G|---------------------------------------------------------------------
D|4-4-4-4-4-4-4-4-5-5-5-5-5-5-5-5-5-4-4-4-4-4-4-4-4-4-4-5-5-5-5-5-5-5-5
A|4-4-4-4-4-4-4-4-5-5-5-5-5-5-5-5-5-4-4-4-4-4-4-4-4-4-4-5-5-5-5-5-5-5-5
D|4-4-4-4-4-4-4-4-5-5-5-5-5-5-5-5-5-4-4-4-4-4-4-4-4-4-4-5-5-5-5-5-5-5-5

Chorus
E|----------------------------------------------------------------------
B|----------------------------------------------------------------------
G|---------------------2-2--w/wah6-7-9-6/7-----------------------2-2----
D|7-7-7--7-7-7-5-5-4-4-0-0------------------7-7-7--7-7-7-5-5-4-4-0-0--4^
A|5-5-5--4-4-4-5-5-4-4-0-0------------------5-5-5--4-4-4-5-5-4-4-0-0----
D|-------------5-5-4-4-0-0-------------------------------5-5-4-4-0-0----

Verse again...

Prechorus, chorus

Interlude: (same as intro)

Chorus to end...
Show more