Creed - Higher

********************************
Tab by: Joseph "Joey_21" Martin*
joey21__2002@hotmail.com       *
********************************

Tab best viewed at 1024x768 resolution.

*************
*f = fast-to*
*************

Tempo = 155

Beginning:
  D-Maj				  A-Maj			G-Maj			     D-Maj
E----------0--0-2--2-0---2-3--2-0-0--0-2--2f2-0f0-0-2-0-3-3--3-3-3-3-3--3-3-3-3--3-3-3-2-2--2-3-2-2-
B-3-3-3--3-3--3-3--3-3-3-3-3--3-3-2--2-2--2f2-2f2-2-2-2-0-0--0-3-0-3-0--0-0-0-0--0-0-3-3-3--3-3-3-3-
G-2-2-2--2-2--2-2--2-2-2-2-2--2-2-2--2-2--2f2-2f2-2-2-2-0-0--0-0-0-0-0--0-0-0-0--0-0-2-2-2--2-2-2-2-
D-0-0-0--0-0--0-0--0-0-0-0-0--0-0-2--2-2--2f2-2f2-2-2-2-0-0--0-0-0-0-0--0-0-0-0--0-0-0-0-0--0-0-0-0-
A---------------------------------------------------------------------------------------------------
D---------------------------------------------------------------------------------------------------


E-0-0-2-2-0-0-
B-3-3-3-3-3-3-
G-2-2-2-2-2-2-
D-0-0-0-0-0-0-
A-------------
D-------------

2nd time with overdrive:
  D-Maj				  A-Maj			G-Maj			     D-Maj
E----------0--0-2--2-0---2-3--2-0-0--0-2--2f2-0f0-0-2-0-3-3--3-3-3-3-3--3-3-3-3--3-3-3-2-2--2-3-2-2-
B-3-3-3--3-3--3-3--3-3-3-3-3--3-3-2--2-2--2f2-2f2-2-2-2-0-0--0-3-0-3-0--0-0-0-0--0-0-3-3-3--3-3-3-3-
G-2-2-2--2-2--2-2--2-2-2-2-2--2-2-2--2-2--2f2-2f2-2-2-2-0-0--0-0-0-0-0--0-0-0-0--0-0-2-2-2--2-2-2-2-
D-0-0-0--0-0--0-0--0-0-0-0-0--0-0-2--2-2--2f2-2f2-2-2-2-0-0--0-0-0-0-0--0-0-0-0--0-0-0-0-0--0-0-0-0-
A-0-0-0--0-0--0-0--0-0-0-0-0--0-0-0--0-0--0f0-0f0-0-0-0-5-5--5-5-5-5-5--5-5-5-5--5-5-0-0-0--0-0-0-0-
D-0-0-0--0-0--0-0--0-0-0-0-0--0-0-2--2-2--2f2-2f2-2-2-2-5-5--5-5-5-5-5--5-5-5-5--5-5-0-0-0--0-0-0-0-

E-0-2-0-2-0-
B-3-3-3-3-3-
G-2-2-2-2-2-
D-0-0-0-0-0-
A-0-0-0-0-0-
D-0-0-0-0-0-


Stuff played until chorus:
  D-Maj		G-Maj
E-0-0-0f0f0-0f0-3-3f3f3-3f3- REPEAT until BC
B-3-3-3f3f3-3f3-0-0f0f0-0f0-
G-2-2-2f2f2-2f2-0-0f0f0-0f0-
D-0-0-0f0f0-0f0-0-0f0f0-0f0-
A-0-0-0f0f0-0f0-5-5f5f5-5f5-
D-0-0-0f0f0-0f0-5-5f5f5-5f5-


BC:
  F#5				  G5				  F#5			      G5
E---------------------------------------------------------------------------------------------------
B---------------------------------------------------------------------------------------------------
G---------------------------------------------------------------------------------------------------
D-4-4-4-4-4-4-4-4-4-4-4-4-4-4-4-4-5-5-5-5-5-5-5-5-5-5-5-3-5-5-5-5-4-4-4-4-4-4-4-4-4-4-4-4-4-4-4-4-5-
A-4-4-4-4-4-4-4-4-4-4-4-4-4-4-4-4-5-5-5-5-5-5-5-5-5-5-5-3-5-5-5-5-4-4-4-4-4-4-4-4-4-4-4-4-4-4-4-4-5-
D-4-4-4-4-4-4-4-4-4-4-4-4-4-4-4-4-5-5-5-5-5-5-5-5-5-5-5-3-5-5-5-5-4-4-4-4-4-4-4-4-4-4-4-4-4-4-4-4-5-

  High G5
E-0--0--0--0--0--0--0--0--
B-0--0--0--0--0--0--0--0--
G-0--0--0--0--0--0--0--0--
D-17-17-17-17-17-17-17-17-
A-17-17-17-17-17-17-17-17-
D-17-17-17-17-17-17-17-17-


Chorus:
************************************
*NOTE: The D5 and A5 chords        *
*in the chorus may be repeated     *
*as many times as needed to prevent*
*a fade-out                        *
************************************
  D5		A5		G5    F#5  D5
E--------------------------------------------
B--------------------------------------------
G--------------------------------------------
D-0-------------7---------------5-----4----0-
A-0-------------7---------------5-----4----0-
D-0-------------7---------------5-----4----0-

1st time after chorus:
E-----0-------
B-2-3---3-2-3-
G-------------
D-------------
A-------------
D-------------

2nd time after chorus:
E---------
B---------
G---------
D-4-5-4-0-
A---------
D---------

Then Repeat. The rest should be self-explanatory.
Show more