Song: Higher
Band: Creed
Album: Human Clay
Tabbed by: Matt Jones

Drop to a D tuning (top to bottom - DADG)

Symbol Meanings:
~ - let ring
/ - slide up
 - slide down
^ - harmonic
b - bend



Intro (no bass at first):
G: -------------------------------------------
D: -------------------------------------------
A: --------0~---------------------------------
D: -00-0~------------5~----5p0-0-0---5p0-0-0--

Verse:
G: -------------------------------------------
D: -------4-5------------------4-5------------
A: -------------------------------------------
D: -0~-0~-------5~-5~--7-0~-0~-------5~-5~--7-

Pre-Chorus (so lets go there...):
G: -----------------------------------------------------------------------------------------
D: -----------------------------------------------------------------------------------------
A: -------------------------------------------------------------5/10-10-10-10-10-10-10------
D: -4444444444444444-5555555555555555-4444444444444444-55555555------------------------10-

Chorus 1 (can you take me higher):
G: ---------------------------
D: ---------------------------
A: ----44-55--------4-5-7-4-5-
D: -00-------55-00------------

Chorus 2 (to a place...)
G: ---------------------------
D: ---------------------------
A: ----44-55--------4b--------
D: -00-------55-00------------

Chrous Ending:
G: ---------------------------
D: ---------------------------
A: ----44-55------------------
D: -00-------5-5-0~-----------

Interlude:
G: ----------------------------------------------------
D: ----------------------------------------------------
A: ------------0~-0~-0~-0------------------------------
D: -0~-0~-0~-0------------5~-5~-5~-5-5p0-0-0---5p0-0-0-

Interlude ending:
G: ----------------------------------------------------
D: -------------------------------------5-4----5-4-----
A: ------------0~-0~-0~-0--------------------------5---
D: -0~-0~-0~-0------------5~-5~-5~-5-55-----55---------

Song ending:
G: ------------------------19^-
D: --------------------12^-----
A: ----44-55-------------------
D: -00-------5-5-0~------------

Order:
Intro x 1
Verse x 6
Pre-Chorus x 1
Chorus 1 x 1
Chorus 2 x 1
Chorus 1 x 1
Chorus Ending x 1
Verse x 6
Pre-Chorus x 1
Chorus 1 x 1
Chorus 2 x 1
Chorus 1 x 1
Chorus Ending x 1
Pre-Chorus x 1
Interlude x 2
Interlude Ending x 1
(Short Break)
Interlude x 2
Chorus 1 x 1
Chorus 2 x 1
Chorus 1 x 1
Chorus 2 x 1
Chorus 1 x 3
Song Ending x 1
Show more