Band:Creed
Song:Higher 
album :Human Clay 


Drop-D tuning...Lo to Hi(DADG) 

Intro 

MM = 78 

    w   +w   +w   +H+e s s   E s e s s s s e s s s s   
+-----+----+----+----------+-------------------------+ 
|4:-R-|----|----|----------|-------------------------| 
|4:---|----|----|----------|-----5-5-5-5-5-----5-7-5-| 
+-----+----+----+------7-7-+-0-0-----------0-0-------+ 

   
  E s s s s s e s s s s s s   E s s s s e s s s s s s s   
+---------------------------+---------------------------+ 
|-------------------R-------|---------------------------| 
|-0-0-0-4-5-4-4-4-5---7P5-5-|---------------------------| 
+---------------------------+-5-5-5P0-3-5-5-5P0-3H5-5P0-+ 
                           
                         1st Verse 

  s e e s s e e s s s e    q q+s s e e s s   q E s e s s s s e   
+-----------------------+------------------+-------------------+ 
|-----------------------|*-----------------|---5-5-------R-----| 
|-----------------7-5-7-|*---5-----5-------|-------------------| 
+-5-0-0-0-5-0-0-0-------+--0-----0/--0-4/5-+-5-----5-5/7---5-5-+ 

                                       Pre-chorus 

  q q+s s e e s s   q E s e s s e e 3  s s s s s s s s s s s s s s s s   
+-----------------+------------------+---------------------------------+ 
|-----------------|---5-5-5---------*|---------------------------------| 
|---5-----5-------|-----------------*|---------------------------------| 
+-0-----0/--0-4/5-+-5-------5H7-7-5--+-4-4-4-4-4-4-4-4-4-4-4-4-4-4-4-4-+ 

   
  s s s s s s s s s s s s s s s s   s s s s s s s s s s s s s s s s   
+---------------------------------+---------------------------------+ 
|---------------------------------|---------------------------------| 
|---------------------------------|---------------------------------| 
+-5-5-5-5-5-5-5-5-5-5/7-7-7-5-5-5-+-4-4-4-4-4-4-4-4-4-4-4-4-4-4-4-4-+ 

                                      Chorus 
                                       
  s s s s e  e  s  e  s  s  s  s  s   E s s s E s s s e s   
+-----------------------------------+---------------------+ 
|-----------------------------------|---------------R-----| 
|-----------------------------------|---5H7-5-4-4H5---7-7-| 
+-5-5-5-5-5/16-17-17-17-17-17-17-17-+-0-------------------+ 


  E E s e s s s s s e   E s s s     q s s s s e   E E s e s s s e      s s 
+---------------------+-------------------------+--------------------------+ 
|---------4-----4-5-7-|-------------------------|---------4----------------| 
|-----------5-5-------|-5-5-----(5)\4-4H5-5-7-7-|-----------5-5-4>-(5)-5-7-| 
+-5-4-0-0-------------+-----5/7-----------------+-5-4-0-0------------------+ 


  E s s s E s s s e s   E E s e s s s s s e   E s s s     q s s s s e   
+---------------------+---------------------+-------------------------+ 
|---------------R-----|---------4-----4-5-7-|-------------------------| 
|---5H7-5-4-4H5---7-7-|-----------5-5-------|-5-5-----(5)\4-4H5-5-7-7-| 
+-0-------------------+-5-4-0-0-------------+-----5/7-----------------+ 

            2nd Verse 

  E E e+h    q q+s s e e s s   q E s e s s s s e   q q+s s e e s s   
+---------+------------------+-------------------+-----------------+ 
|---------|*-----------------|---5-5-------R-----|-----------------| 
|---------|*---5-----5-------|-------------------|---5-----5-------| 
+-5-4-0---+--0-----0/--0-4/5-+-5-----5-5/7---5-5-+-0-----0/--0-4/5-+ 

                     Pre-chorus 

  q E s e s s e e 3  s s s s s s s s s s s s s s s s   
+------------------+---------------------------------+ 
|---5-5-5---------*|---------------------------------| 
|-----------------*|---------------------------------| 
+-5-------5H7-7-5--+-4-4-4-4-4-4-4-4-4-4-4-4-4-4-4-4-+ 


  s s s s s s s s s s s s s s s s   s s s s s s s s s s s s s s s s   
+---------------------------------+---------------------------------+ 
|---------------------------------|---------------------------------| 
|---------------------------------|---------------------------------| 
+-5-5-5-5-5-5-5-5-5-5/7-7-7-5-5-5-+-4-4-4-4-4-4-4-4-4-4-4-4-4-4-4-4-+ 

                                      Chorus 

  s s s s e  e  s  e  s  s  s  s  s   E s s s E s s s e s   
+-----------------------------------+---------------------+ 
|-----------------------------------|---------------R-----| 
|-----------------------------------|---5H7-5-4-4H5---7-7-| 
+-5-5-5-5-5/16-17-17-17-17-17-17-17-+-0-------------------+ 


  E E s e s s s s s e   E s s s     q s s s s e   E E s e s s s e      s s 
+---------------------+-------------------------+--------------------------+ 
|---------4-----4-5-7-|-------------------------|---------4----------------| 

|-----------5-5-------|-5-5-----(5)\4-4H5-5-7-7-|-----------5-5-4>-(5)-5-7-| 
+-5-4-0-4-------------+-----5/7-----------------+-5-4-0-0------------------+ 


  E s s s E s s s e s   E E s e s s s s s e   E s s s     q s s s s e   
+---------------------+---------------------+-------------------------+ 
|---------------R-----|---------4-----4-5-7-|-------------------------| 
|---5H7-5-4-4H5---7-7-|-----------5-5-------|-5-5-----(5)\4-4H5-5-7-7-| 
+-0-------------------+-5-4-0-4-------------+-----5/7-----------------+ 

                          1st Bridge 

  E E s e s s s s s s s    s s s s s s s s s s s s s s s s   
+-----------------------+----------------------------------+ 
|---------4-------------|*---------------------------------| 
|-----------5-5-4H5-5-7-|*---------------------------------| 
+-5-4-0-0---------------+--4-4-4-4-4-4-4-4-4-4-4-4-4-4-4-4-+ 


  s s s s s s s s s s s s s s s s   s s s s s s s s s s s s s s s s   
+---------------------------------+---------------------------------+ 
|---------------------------------|---------------------------------| 
|---------------------------------|---------------------------------| 
+-5-5-5-5-5-5-5-5-5-5-5-5-5-5-5-5-+-4-4-4-4-4-4-4-4-4-4-4-4-4-4-4-4-+ 

                                             Guitar Solo 

  s s s s s s s  s  s  s  s  s  s  s  s  s   E s e s s s s e s s s s   
+------------------------------------------+-------------------------+ 
|------------------------------------------|-------------------------| 
|------------------------------------------|-----5-5-5-5-5---5-5-7-5-| 
+-4/5-5-5-5-5-5/16-17-17-17-17-17-17-17-17-+-0-0-----------0---------+ 


  e s s s s s E s s s e s   e s s s s s e s s s s s s s   
+-------------------------+-----------------------------+ 
|-------------------R-----|-----------------------------| 
|-----------5-4-4-5---7\5-|-----------------------------| 
+-7-7-7-7-7---------------+-5-5-5-5-0-3-5-5-5-0-3-5-5-7-+ 

                            2nd Bridge 

  s e e s s e e s s s s s   E s e s E e s s s s   E s s s s e s s s s s s 
s   
+-------------------------+---------------------+---------------------------+ 
|-------------------------|---------------------|---------------------------| 
|-------------------------|---------------5-7-5-|---------5-4-4-4H5-5H7-7-5-| 
+-5-0-0-0-5-0-0-0-5-0-0-0-+-0-0-0-0-0-0-0-------+-7-7-7-7-------------------+ 


  E s s s s s s s s s s s s s   s e e s s e e s s s s s   E s e s E e s s 
s s   
+-----------------------------+-------------------------+---------------------+ 
|---5-------------------------|-----------------5-4---4-|---------------------| 
|-----------------------------|---------------------7---|---------------5-7-5-| 
+-5---5-0-5-5-5-5-0H3/5-5-0-5-+-5-0-0-0-5-0-0-0---------+-0-0-0-0-0-0-0-------+ 


  E s s s s e s s s s s s s   E s s s s s s s s s s s s s   
+---------------------------+-----------------------------+ 
|---------------------------|---5-------------------------| 
|---------5-4-4-4H5-5H7-7-5-|-----------------------------| 
+-7-7-7-7-------------------+-5---5-0-5-5-5-5-0H3/5-5-0-5-+ 

                         Interlude              3rd Bridge 

  s s s e s s s s e s q   w   w   +w   +H+E s   e q e e e E s   e e e e e 
e q   
+---------------------7-+---+---+----+--------+---------------+---------------+ 
|-----5-4-4-----5-4-4---|---|-R-|----|--------|---------------|---------------| 
|-----------------------|---|---|----|------4-|-5-5-5-5-5-5---|---------------| 
+-5-0-------0-0---------+-0-+---+----+--------+-------------5/+-7-7-7-7-7-7-7-+ 

                                        Chorus 

  e e e e h   s e e s s e e s s s s s   E s s s E s s s e s   
+-----------+-------------------------+---------------------+ 
|-----------|-------------------------|---------------R-----| 
|-----------|-------------------------|---5H7-5-4-4H5---7-7-| 
+-5-5-5-5-5-+-5-0-0-0-5-0-0-0-5P0-0-0-+-0-------------------+ 


  E E s e s s s s s e   E s s s     q s s s s e   E E s e s s s e      s s 
+---------------------+-------------------------+--------------------------+ 
|---------4-----4-5-7-|-------------------------|---------4----------------| 
|-----------5-5-------|-5-5-----(5)\4-4H5-5-7-7-|-----------5-5-4>-(5)-5-7-| 
+-5-4-0-0-------------+-----5/7-----------------+-5-4-0-0------------------+ 


  E s s s E s s s e s   E E s e s s s s s e   E s s s     q s s s s e   
+---------------------+---------------------+-------------------------+ 
|---------------R-----|---------4-----4-5-7-|-------------------------| 
|---5H7-5-4-4H5---7-7-|-----------5-5-------|-5-5-----(5)\4-4H5-5-7-7-| 
+-0-------------------+-5-4-0-0-------------+-----5/7-----------------+ 

                             Outro Chorus 

  E E s e s s s e      s s   E s s s q s s s e s   E E s e s s s s s e   
+--------------------------+---------------------+---------------------+ 
|---------4----------------|---------------R-----|---------4-----4-5-7-| 
|-----------5-5------------|---5H7-5-4-4H5---7-7-|-----------5-5-------| 
+-5-4-0-0-------4>-(5)-4P0-+-0-------------------+-5-4-0-0-------------+ 


  E s s s     q s s s s e   E E s e s s s e      s s   
+-------------------------+--------------------------+ 
|-------------------------|---------4----------------| 
|-5-5-----(5)\4-4H5-5-7-7-|-----------5-5-4>-(5)-5-7-| 
+-----5/7-----------------+-5-4-0-0------------------+ 


  E s s s s e s s s s s s s   E E s e s s s s s e   E s s s     q s s s s 
e   
+---------------------------+---------------------+-------------------------+ 
|---7-7-------7-------------|---------4-----4-5-7-|-------------------------| 
|-5-----5-4-4---4-4-4H5-5-7-|-----------5-5-------|-5-5-----(5)\4-4H5-5-7-7-| 
+---------------------------+-5-4-0-0-------------+-----5/7-----------------+ 


  E E e+h   +w   
+---------+----+ 
|---------|----| 
|---------|----| 
+-5-4-0---+----+
Show more