CREED - MY OWN PRISION
TABBED BY SCHITZOPHRENIAC
KANDYMAKERVIII@YAHOO.COM
DROP D TUNING

Opening (Come in when drums come in)
G-------------------------------
D-------------------------------
A-0-3h5-3-----------------------
D--------5-3-0------------------

Verse
G------------------------------------------------
D---------------0-3h5-3-0--------------------0---
A-------0-0-0h1-----------------0-3h5-3---------- 
D--3-3-3------------------3-3-3----------5-3---0-

Chorus 
G------------------------------------------------------------------------
D--------------------------------------------8-8-----------------3-------
A--------3---3-5-5---------2--2-3-5--6-666-6--6-6--5-555-5-0-3-5--5-3-3--
D-3-333-3--3--------2-222-2--2------------------------------------------- 

Pre-chorus ("Shoulda Been Dead On A Sunday Morning...")
G-------------------------------------
D-------------------------------------
A-------1-1-1-1-------0-3h5-3---------
D-0-0-0---------3-3-3--------5-3-0----

Guitar Solo                      
G------------------------------
D------------------------------
A---------3-3-3h4-5-5-5--1-1-1-
D---3-3-3----------------------
Show more