My Own Prison - Creed
Tuning: Drop D (D A D G)
Tabber: Gasgano

[3] = OPTIONAL

Intro
G|---------------------------------------------------
D|--------------------------------------------------- 
A|-0-3-5-3-0----------------------------------------- /
D|-----------5-3-0-----------------------------------/

Verse
G|---------------------------------------------------
D|-0-----0-3-3-0---[3]---------------[3]------------- 
A|---0-1----------------0-3-5-3-0-------------------- /
D|---------------3----------------5-3---0------------/

Chorus
G|---------------------------------------------------
D|--------------------------------------------------- 
A|-------3---3-3-55-------------------8---6-8-------- /
D|-3---3---3---------x-22-22-33-55-66---6-----6-5----/

1?                     2?
G|------------------  G|-----------------
D|-------0-35-57-7--  D|----------------- 
A|-3-0-------------- / A|----------------- /
D|------------------/  D|-0----------------/

Break
G|---------------------------------------------------
D|--------------------------------------------------- 
A|-------3-3---0-3/555-11-0-------------------------- /
D|-3-3-3---------------------------------------------/


Intro
Verse x9
 
Chorus
1?      x1
Chorus /
2?    /

Verse x9

Chorus
1?      x1
Chorus /
2?    /

Break x 6

Chorus x 5
1?    /

Chorus x1

For comments, gasgano55@hotmail.com and take a look at http://www.gasgano55.cjb.net !!!
Show more