Creed - My Own Prison

Ok, this tab has been done many times by people, and it has been wrong everytime. 
Obviously, it takes a true master at the bass to tab a song, well thats me, Bassmaster.
Tune your bass to DADG.

Opening (Come in when drums come in)
G-------------------------------
D-------------------------------
A-0-3h5-3-----------------------
D--------5-3-0------------------

Verse
G--------------------------------------------
D---------------0-3h5-0----------------------
A-------0-0-0h1---------------0-3h5-3-------- 
D--3-3-3----------------3-3-3----------5-3-0-

Chorus 
G------------------------------------------------------------------------
D--------------------------------------------8-8-----------------3-------
A--------3---3-5-5---------2--2-3-5--6-666-6--6-6--5-555-5-0-3-5--5-3-3--
D-3-333-3--3--------2-222-2--2------------------------------------------- 

Verse again

Pre-chorus ("Shoulda Been Dead On A Sunday Morning...")
G-------------------------------------
D-------------------------------------
A-------1-1-1-1-------0-3h5-3---------
D-0-0-0---------3-3-3--------5-3-0----

Chorus

Guitar Solo                      On the last one play this, it sounds really cool
G------------------------------|------------------
D------------------------------|------------------
A---------3-3-3h4-5-5-5--1-1-1-|--/15-15-15-15-15-
D---3-3-3----------------------|------------------

Chorus

Tab was done by a 16 year old bass legend named DP.
Show more