|-------------|----------------0--3----|
|-------------|-------------3----------|
|-3-3h5p3-----|----0--1--0-------------|
|---------5h3-|-0--------------------3-| Verses

|--------------------------------------------------|
|------------------------------------3-3-3-3-4-5-5-|
|----------------------3-3-3-3--5-5----------------|
|-3--3-3-3-3-3--5--22------------------------------| Chorus

|-------------------------|
|-------------------------|
|------1-------3--5-5-5-5-|
|-0-0-----0-0-------------| Chorus End 1   End 2 is open E

|-------------------------------------------|---------------|
|-------------------------------------------|---------------|
|------------------1-1-1-1------------------|-3-3-5h3p3-----|
|-0-0-0-0-0-0-0-0-----------3-3-3-3-3-3-3-3-|-----------5h3-| "Should Have been..."

|-----------------------------|----------------|
|-----------------------------|----------------|
|-------------3-3--5-5-5--3-3-|/15-15-15-15-15-|
|-3-3-3--5-5------------------|----------------| Solo/Break
Show more