drop d tuneing
the chorus to the song isnt a 100% right but it sounds good playing when im playing 
along with the record

intro-come in with the drums
g--------------------------------

d--------------------------------

a-3--5--3------------------------

d----------5--3------------------

verse-
g--------------------------------------------------------

d----0--0----------0h3----------3--3---------------------

a------------0h1---------1-------------3--5--3-----------

d-0--------------------------3-------------------5--3----

chorus and played during guitar solo-
g--------------------------------------------------------

d--------------------------------------------------------

a--------------------------------------------------------

d-3-3-3-3-3-3---2-2-2-2-2-2---1-1-1-1-1-1---0-0-0-0-0-0--

play this when he sings should of been dead on a sunday mourning-
g------------------------------------------------

d------------------------------------------------

a-----------1-1-----------3--5--3----------------

d-0-0-0-00-------3--3-3-------------5--3--------
Show more