Band:  Creed
Album: Weathered
Song:  My Sacrifice
Tabbed by: VictorHinder
Tuning:Open-D5 (DADADD-Low to High) Other songs in Open-D5 are listed at the bottom.

I still haven?t seen the right intro of this song, so I decided to tab it myself. Enjoy! 
Intro:
(clean, let notes ring out) 
-----------0------------------------0------------| 
-------------0---------------------------0-------| 
---4-----------4-----------------12--------12----| 
-----4-----------4~~~~~~------12-------------12~~| 
-2------2----------------0-10--------------------| 
-------------------------------------------------| 

0-0--0----0----0~~~~---0--0----0----0~~~~--0-------0--| }hit them softly
0-0--0----0----0~~~~---0--0----0----0~~~~--0-------0--| } ?   ?     ?
0-0--5/4--4/5--5~~~~---0--5/4--4/9--9~~~~--9/10----0--| 
0-0--0----0----0~~~~---0--0----0----0~~~~--0-------0--| 
0-0--5/4--4/5--5~~~~---0--5/4--4/9--9~~~~--9/10----0--| 
0-0--0----0----0~~~~---0--0----0----0~~~~--0-------0--| 
                         Natural Harmonic comin? in(B-, and E-string, fret 12)
-----------0------------------------0------------| 
-------------0---------------------------0-------| 
---4-----------4-----------------12--------12----| 
-----4-----------4~~~~~~------12-------------12~~| 
-2------2----------------0-10--------------------| 
-------------------------------------------------|  

All the zeros(?0?) of the B-, and High E-string are hit lightly throughout the song.
Kick in the distortion:
------------------------------|-----------------------------| 
------------------------------|-----------------------------| 
-5/4--4/5--5-5-5--4/5--5-5-5--|--5/4--4/5--5-5-5--4/5--5-4--| 
-0----0----0-0-0--0----0-0-0--|--0----0----0-0-0--0----0-0--| 
-5/4--4/5--5-5-5--4/5--5-5-5--|--5/4--4/5--5-5-5--4/5--5-4--| 
-0----0----0-0-0--0----0-0-0--|--0----0----0-0-0--0----0-0--|
		                                       
-0---0---0---0-0--0-0------|------------0--0--0--0--0--0--0-----|
-0---0---0---0-0--0-0------|------------0--0--0--0--0--0--0-----|
-0---0---0---0-0--0-0---0--|--/0--?0---12-12-12-12-12-12-12--0--|              
-4---4---4---4-4--4-4---0--|--/12--12--12-12-12-12-12-12-12--0--|              
-2---2---2---2-2--2-2---0--|--/10--10--10-10-10-10-10-10-10--0--|           
------------------------0--|--------?------------------------0--|
                                                            
Verse:
------------------------------|---------------------------| 
------------------------------|---------------------------| 
-5/4--4/5--5-5-5--4/5--5-5-5--|--5/4--4/5--5-5--4/5--5-4--| 
-0----0----0-0-0--0----0-0-0--|--0----0----0-0--0----0-0--| 
-5/4--4/5--5-5-5--4/5--5-5-5--|--5/4--4/5--5-5--4/5--5-4--| 
-0----0----0-0-0--0----0-0-0--|--0----0----0-0--0----0-0--|
		                                       
-0---0---0---0-0--0-0------|-----------0-0--0--0-0-0-----|                          
-0---0---0---0-0--0-0------|-----------0-0--0--0-0-0------|                
-0---0---0---0-0--0-0---0--|-----------0-0--0--0-0-0------|                
-4---4---4---4-4--4-4---0--|--/5---5---5-5--5--5-5-5---0--|                
-2---2---2---2-2--2-2---0--|--/5---5---5-5--5--5-5-5---0--|             
------------------------0--|--/5---5?--5-5--5--5-5-5---0--| 

The Chorus is always played like THIS!! Listen to the song properly!!                                                       
Chorus:  
When you are with me____________I?m_______free________________________ 
-------------------------/7--5--4--0-0--|--0---0---0-0-0-0--0--0--| 
--------------------------0--0--0--0-0--|--0---0---0-0-0-0--0--0--| 
--------------0~~-0--0-0--0--0--0--0-0--|--0---0---0-0-0-0--0--0--| 
--------------0~~-0--0-0--0--0--0--0-0--|--7---7---7-7-7-7--7--7--| 
--------------0~~-0--0-0----------------|--4---4---4-4-4-4--4--4--| 
--------------0~~-0--0-0----------------|--0---0---0-0-0-0--0--0--| 

I?m___Care____________less   I be___lie______ve? 
------0~~~-0~~--0-0---0-0---0--0-0--0----------------------------------| 
------0~~~-0~~--0-0---0-0---0--0-0--0----------------------------------| 
-0-0--0~~~-0~~--0-0-4/5-0-4/5--0-0--0----------------------------------| 
-0-0--4~~~-4~~--4-4---4-4---4--4-4--0---5~~~5~~-0-5p3-0-3~~--3-5p3--0--| 
-0-0--2~~~-2~~--2-2---2-2---2--2-2--0---5~~~5~~-0-5p3-0-3~~--3-5p3--0--| 
-0-0--------------------------------0---5~~~5~~-0-5p3-0-3~~--3-5p3--0--| 
                                   
Bridge: ?I just want to say hello to again . . .? 
---------------------------------------------------------------------------| 
---------------------------------------------------------------------------| 
-9/7--7-7--0--7/5--5-5--0--5/4--4-4--0--2/4--4/5--5/4--4/7--7-7-5--5-5--0--| 
-0----0-0--0--0----0-0--0--0----0-0--0--0----0----0----0----0-0-0--0-0--0--| 
-9/7--7-7--0--7/5--5-5--0--5/4--4-4--0--2/4--4/5--5/4--4/7--7-7-5--5-5--0--| 
-0----0-0--0--0----0-0--0--0----0-0--0--0----0----0----0----0-0-0--0-0--0--| 

Bridge Finish:
------------------------------------------------------------------| 
------------------------------------------------------------------| 
-13-13-13-13-----13-13-13-13--x--13-13-13-13-----13-13-13-13------|
------------------------------x-----------------------------------| 
-13-13-13-13--0--13-13-13-13--x--13-13-13-13--0--13-13-13-13--0---| 
--0--0--0--0--0---0--0--0--0--x---0--0--0--0--0---0--0--0--0--0---|
              

Clean chorus(exact strumming pattern): 
When you are with me____________I?m_______free________________________ 
-------------------------/7--5--4--0-0--|--0---0---0-0-0-0--0--0--| 
--------------------------0--0--0--0-0--|--0---0---0-0-0-0--0--0--| 
--------------0~~-0--0-0--0--0--0--0-0--|--0---0---0-0-0-0--0--0--| 
--------------0~~-0--0-0--0--0--0--0-0--|--7---7---7-7-7-7--7--7--| 
--------------0~~-0--0-0----------------|--4---4---4-4-4-4--4--4--| 
--------------0~~-0--0-0----------------|--0---0---0-0-0-0--0--0--| 

I?m___Care____________less   I be___lie______ve? 
------0~~~-0~~--0-0---0-0---0--0-0--0----------------------------------| 
------0~~~-0~~--0-0---0-0---0--0-0--0----------------------------------| 
-0-0--0~~~-0~~--0-0-4/5-0-4/5--0-0--0----------------------------------| 
-0-0--4~~~-4~~--4-4---4-4---4--4-4--0---5~~~5~~-0-5p3-0-3~~--3-5p3--0--| 
-0-0--2~~~-2~~--2-2---2-2---2--2-2--0---5~~~5~~-0-5p3-0-3~~--3-5p3--0--| 
-0-0--------------------------------0---5~~~5~~-0-5p3-0-3~~--3-5p3--0--| 
                                   
Before the distorted chorus starts(harmonics 
between the 2nd and 3rd frets):
-------------------| 
-------------------| 
-------------------| 
-------------------| 
-2.7^--2.7^--2.7^--|
-2.7^--2.7^--2.7^--| 

Then it goes into the dirty chorus: 
When you are with me____________I?m_______free________________________ 
-------------------------/7--5--4--0-0--|--0---0---0-0-0-0--0--0--| 
--------------------------0--0--0--0-0--|--0---0---0-0-0-0--0--0--| 
--------------0~~-0--0-0--0--0--0--0-0--|--0---0---0-0-0-0--0--0--| 
--------------0~~-0--0-0--0--0--0--0-0--|--7---7---7-7-7-7--7--7--| 
--------------0~~-0--0-0----------------|--4---4---4-4-4-4--4--4--| 
--------------0~~-0--0-0----------------|--0---0---0-0-0-0--0--0--| 

I?m___Care____________less   I be___lie______ve? 
------0~~~-0~~--0-0---0-0---0--0-0--0----------------------------------| 
------0~~~-0~~--0-0---0-0---0--0-0--0----------------------------------| 
-0-0--0~~~-0~~--0-0-4/5-0-4/5--0-0--0----------------------------------| 
-0-0--4~~~-4~~--4-4---4-4---4--4-4--0---5~~~5~~-0-5p3-0-3~~--3-5p3--0--| 
-0-0--2~~~-2~~--2-2---2-2---2--2-2--0---5~~~5~~-0-5p3-0-3~~--3-5p3--0--| 
-0-0--------------------------------0---5~~~5~~-0-5p3-0-3~~--3-5p3--0--|

Other songs in Open-D5: Staind - Epiphany
			    Creed - Who?s Got My Back Now
			    Creed - Stand Here With Me 
			    Creed ? Weathered
			    Puddle Of Mudd - Control

V   V  I   CC
 V V   I  C  
  V    I   CC
Show more