Song:   My Sacrifice
Artist: Creed
Tuning: Drop-D 

Tabbed by: obanion23@ticnet.com (suggestions/corrections welcomed)


Intro (Clean w/chr&delay)
---------------------------5---5---5--------------------------------------
----2-------3-------------------------------------------------------------
------4-------4----------7---7---7---7----7-7/6-6/7-7----7-7/6-/11--11/12-
--------4-------4-------------------------7-7/6-6/7-7----7-7/6-/11--11/12-
--2-------2-------2--0--------------------5-5/4-4/5-5----5-5/6-/9----9/10-
-----------------------5--------------------------------------------------

                                             < Distortion on
                                               Verse - repeat 3X 
---------------------------------5---5---5----|---------------------------
-------2--------3-------3---------------------|---------------------------
---------4--------4------------7---7---7---7--|-7/6-6/7-7--7-7-6/7-7--9-7-
-----------4--------4-------------------------|-7/6-6/7-7--7-7-6/7-7--9-7-
-0--2--------2--------2----0------------------|-5/4-4/5-5--5-5-4/5-5--7-5-
-----------------------------5----------------|---------------------------
                                             

                                                              Chorus
---------------------------------x--(2)----------------------|------------
---------------------------------x--(3)------------------8-8-|------------
---7/6-6/7-7--7-7-6/7-7--9-7-----4--(4)-4-4-4-------7--7-7-7-|-------2-2-2
---7/6-6/7-7--7-7-6/7-7--9-7--0--4---4--4-4-4--0-0--5--5-5-5-|-0--0--0-0-0
-0-5/4-4/5-5--5-5-4/5-5--7-5--0--2------2-2-2--0-0--5--5-5-5-|-0--0--0-0-0
-----------------------------------------------0-0-(5)-------|-0--0--0-0-0
                                               X

                                  
--------------------------------------------------------------------------
-5--5--5-5-5----------3-3-3---------------------------------------------5-
-6--6--6-6-6-----4--4-4-4-4------7--7--7-------------------------2-2-2--6-
-7--7--7-7-7-----4--4-4-4-4-0-0--5--5--5---5-3-0-3--5-3-2--0--0--0-0-0--7-
-0--0--0-0-0--0--2--2-2-2-2-0-0--5--5--5---5-3-0-3--5-3-2--0--0--0-0-0--0-
--------------0-------------0-0--5-(5)-----5-3-0-3--5-3-2--0--0--0-0-0----
              X             X           

                                                 2nd Verse 3x
-------------------4-4-4------------------------|-------------------------
-5--5-5-5----------3-3-3------------------------|-------------------------
-6--6-6-6-----4--4-4-4-4------7--7--7-----------|--7/6-6/7--7--7-7-6/7-7--
-7--7-7-7-----4--4-4-4-4-0-0--5--5--5--5-3-0-3--|--7/6-6/7--7--7-7-6/7-7--
-0--0-0-0--0--2--2-2-2-2-0-0--5--5--5--5-3-0-3--|--5/4-4/5--5--5-5-4/5-5--
-----------0-------------0-0--5-(5)----5-3-0-3--|-------------------------
           X             X             

                                                                 Chorus
---------------------------------------(2)----------------------|---------
---------------------------------------(3)------------------8-8-|---------
-9-7----7/6-6/7-7--7-7-6/7-7--9-7----4-(4)-4-4-4-------7--7-7-7-|-------2-
-9-7----7/6-6/7-7--7-7-6/7-7--9-7-0--4--4--4-4-4--0-0--5--5-5-5-|-0--0--0-
-7-5-0--5/4-4/5-5--5-5-4/5-5--7-5-0--2-----2-2-2--0-0--5--5-5-5-|-0--0--0-
--------------------------------------------------0-0-(5)-------|-0--0--0-
                                                  X    


--------------------------(2)---------------------------------------------
------5--5--5-5-5----------3-3-3---------8--8-----------------------------
-2-2--6--6--6-6-6-----4--4-4-4-4------7--7--7------------------------2-2-2
-0-0--7--7--7-7-7-----4--4-4-4-4-0-0--5--5--5--5-3-0-3--5-3-2--0--0--0-0-0
-0-0--0--0--0-0-0--0--2--2-2-2-2-0-0--5--5--5--5-3-0-3--5-3-2--0--0--0-0-0
-0-0---------------0-------------0-0--5-(5)----5-3-0-3--5-3-2--0--0--0-0-0


                                                              Bridge 4x  
-----------------------(2)-----------------------------------|------------
-5--5--5-5-5------------3--3-3---------8--8------------------|------------
-6--6--6-6-6----4--4----4--4-4------7--7--7------------------|-11/9-9-----
-7--7--7-7-7----4--4----4--4-4-0-0--5--5--5--5-3-0-3-5-3-2-0-|-11/7-9-----
-0--0--0-0-0-0--2--2----2--2-2-0-0--5--5--5--5-3-0-3-5-3-2-0-|--9/7-7-----
-------------0-----------------0-0--5-(5)----5-3-0-3-5-3-2-0-|--------0-0-
             X                                                        X X
            
                                        
------------------------------------------|--------------------------------
------------------------------------------|---11-11-11-11---11-11-11-11----
-9/7-7-----7/6-6-----4/6-6/7-7/9-9/7--7-7-|---10-10-10-10---10-10-10-10----
-9/7-7-----7/6-6-----4/6-6/7-7/9-9/7--7-7-|----8--8--8--8----8--8--8--8----
-7/5-5-----5/4-4-----2/4-4/5-5/7-7/5--5-5-|--------------------------------
-------0-0-------0-0-----------------0----|--------------------------------
       X X       X X                 X        
                                              
                                           Dist. off, Clean w/flang        
------------------------------------------|--------------------------------
--11-11-11-11---11-11-11-11---------------|--------------10-8-7h8p75--5-5-
--10-10-10-10---10-10-10-10---------2-----|-7--7-7--7-7-------------6--6-6-
---8--8--8--8----8--8--8--8---0-0-0-0-----|-0--0-0--0-0-------------7--7-7-
------------------------------0-0-0-0-----|-0--0-0--0-0--------------------
------------------------------0-0-0-0-----|--------------------------------
                              X X X ~~~~~~          


---------2-2---------------------------5-----------------------------------
-5-5--5--3-3-3-----3-2----7--7--7-7-7--------------------10-8-7h8p75--5-5-
-6-6--6--4-4---4-------2--5--5--5-5-5----7--7--7-7--7-7-------------6--6-6-
-7-7--7--4-4-----4--------5--5--5-5-5-------0--0-0--0-0-------------7--7-7-
---------2-2--------------5--5--5-5-5-------0--0-0--0-0--------------------
---------------------------------------------------------------------------


                                                             
                                        Dist. On  Chorus
----------2-2------------------------------------|-------------------------
--5-5--5--3-3-3-----3-2----7--7--7---------------|--------------5--5--5----
--6-6--6--4-4---4-------2--5--5--5---------------|-------2-2-2--6--6--6----
--7-7--7--4-4-----4--------5--5--5------------5--|-0--0--0-0-0--7--7--7----
----------2-2--------------5--5--5------------5--|-0--0--0-0-0--0--0--0--0-
----------------------------------------------5--|-0--0--0-0-0-------------
                                 ~~~~~~~~~~  


-----(2)-------------------------------------------------------------------
------3-3-3---------8--8--------------------------------5--5--5-5-5--------
-4--4-4-4-4------7--7--7------------------------2-2-2---6--6--6-6-6----4--4
-4--4-4-4-4-0-0--5--5--5--5-3-0-3--5-3-2--0--0--0-0-0---7--7--7-7-7----4--4
-2--2-2-2-2-0-0--5--5--5--5-3-0-3--5-3-2--0--0--0-0-0---0--0--0-0-0-0--2--2
------------0-0--5-(5)----5-3-0-3--5-3-2--0--0--0-0-0----------------------


                                       Repeat 3x
-(2)----------------------------------|------------------------------------
--3--3-3--------8--8------------------|------------------------------------
--4--4-4-----7--7--7------------------|-11/9-9-----9/7-7-----7/6-6-----4/6-
--4--4-4-0-0-5--5--5--5-3-0-3-5-3-2-0-|-11/9-9-----9/7-7-----7/6-6-----4/6-
---------0-0-5--5--5--5-3-0-3-5-3-2-0-|-11/9-9-----9/7-7-----7/6-6-----4/6-
---------0-0-5--5--5--5-3-0-3-5-3-2-0-|--------0-0-------0-0-------0-0-----
                                               X X       X X       X X


                        
-------------------|--------------------------------------------------------
-------------------|--11-11-11-11---11-11-11-11---11-11-11-11---11-11-11-11-
-6/7-7/9-9/7---7-7-|--10-10-10-10---10-10-10-10---10-10-10-10---10-10-10-10-
-6/7-7/9-9/7---7-7-|---8--8--8--8----8--8--8--8----8--8--8--8----8--8--8--8-
-6/7-7/9-9/5---5-5-|--------------------------------------------------------
-------------0-----|--------------------------------------------------------
             X 


                Fade, Dist. off  Outro (clean / fade out)
--------------------------------|-----------------------------------------2-
--------------------------------|--------------10-8-7h8p75--5-5--5-5--5--3-
----------2---------------------|--7--7-7--7-7------------6--6-6--6-6--6--4-
-0--0--0--0---------------------|--0--0-0--0-0------------7--7-7--7-7--7--4-
-0--0--0--0---------------------|--0--0-0--0-0----------------------------2-
-0--0--0--0---------------------|-------------------------------------------
 X  X  X  ~~~~~~~~~~~~~~~~~~~~~~ 



-2----------------------------------   ( ) = let ring 
-3-3--------------------------------    = harmonic 
-4---2----7-------------------------
-4-----2--5-------------------------
-2--------5-------------------------
----------5-------------------------
           ~~~~~~~~~~~~~~~~~~~~~~~~~
Show more