Band: Creed
Song: My Sacrifice
CD: Weathered
Tabbed by: Nick
Tuning: E,A,D,G


Intro / Verse:
G/----------------------------------------------------------------|
D/----------------------------------------------------------------|
A/-5-5--5-5-5-5--5-5--2-2--2--2--2--2--2--------------------------|
E/-----------------------------------------3-3--3-3-3-3-3--3-3----|


Chorus:
G/----------------------------------------------------------------------------------|
D/----------------------------------------------------------------------------------|
A/-5--5-5--5-5--5--5--4-4--4--4--4--4---4---2-2--2--2--2-2--2-2---------------------|
E/--------------------------------------------------------------3--3-3-3--3-3--3-3--|


Bridge or the Break im not sure what its called.
its when hes singin "I just want to say"
G/---------------------------------|
D/---------------------------------|
A/-5--5--5-5-5-5-5--5--5--5-5--5---|
E/---------------------------------|


thats about it , if theres any problems or whatever email me at: pipe_dream_900@hotmail.com , thanx , enjoy!
Show more