Song-Never Die
Performer-Creed 
Album-Human Clay
Drop D Tuning
b=Bend     Tabbed by thehereticanthem666 
Listen to song for timing but this is the right order its 100% right
Intro
E |------------------------------------------|
B |------------------------------------------|
G |--8b----3b-----7b-----2b------------------|
D |------------------------------------------|
A |------------------------------------------|
D |--6------1------5------0------------------|
Chorus
    Palm mute 0's
E |--------------------------------------|
B |--------------------------------------|
G |-----8-------3-----7-----2b-----------|
D |-00--6---0-0-1-0-0-5-0-0-0----00-00---|
A |-00--6---0-0-1-0-0-5-0-0-0----00-00---|
D |-00--6---0-0-1-0-0-5-0-0-0----00-00---|
Verse
E |------------------------------------------|
B |------------------------------------------|
G |--8b----3b----7b----2b--------------------|
D |------------------------------------------|
A |------------------------------------------|
D |--6------1-----5-----0--------------------|

Chorus
    palm mute 0's
E |----------------------------------------|
B |----------------------------------------|
G |--------8b------3b----7b----2b----------|
D |--00-00-6---0-0-1-0-0-5-0-0-0----00-00--|
A |--00-00-6---0-0-1-0-0-5-0-0-0----00-00--|
D |--00-00-6---0-0-1-0-0-5-0-0-0----00-00--|

interlude                        
clean then wah with distortion|       last time before last chorus
E | ------------------------------------|--------------------------------------------------|
B |-------------------------------------|--------------------------------------------------|
G |--11-12----12---14-14/15/14----------|-11-12-12-14/15/14-15-15/14-14-14-14/15/14/12/11--|
D |-------------------------------------|--------------------------------------------------|
A |--9--10----10---12-12/13/12----------|-9--10-10-12/13/12-13-13/12-12-12-12/13/12/10/9---|
D |-------------------------------------|--------------------------------------------------|


Chorus
 palm mute 0's
E |-----------------------------------------------|
B |-----------------------------------------------|
G |--------8b------3b----7b----2b-----------------|
D |--00-0--6---0-0-1-0-0-5-0-0-0----00-00---------|
A |--00-0--6---0-0-1-0-0-5-0-0-0----00-00---------|
D |--00-0--6---0-0-1-0-0-5-0-0-0----00-00---------|

Outro
E |-----------------------------|
B |-----------------------------|
G |--8b----3b-----7b-----2b-----|
D |-----------------------------|
A |-----------------------------|
D |--6------1------5------0-----|
Show more