Intro/Verse fingerpicked
E-----------------------------------------------------------------------------
B-----------------------------------------------------------------------------
G--8br----3br----7br----2br-(2)-----------------------------------------------
D-----------------------------------------------------------------------------
A-----------------------------------------------------------------------------
D--6------1------5------0---(0)-----------------------------------------------

Chorus              
E-----------------------------------------------------------------------------
B-----------------------------------------------------------------------------
G--------------10br---------3br---------9br---------2br-----------------------
D-0-0---0-0----8-----0-0----1----0-0----7----0-0----0-------------------------      A-0-0---0-0----8-----0-0----1----0-0----7----0-0----0-------------------------      D-0-0---0-0----8-----0-0----1----0-0----7----0-0----0-------------------------pm.........|        pm..|       pm..|       pm..| 

Interlude w/ Phaser
E-----------------------------------------------------------------------------
B----------------------------------------------------------------------------- 
G----------------------------------------------------------------------------- 
D----------------------------------------------------------------------------- 
A-9-10-12-12h13p12--9-10-12-x-12h13p12---9-10-12-x-x-12h13p12--9-9h10-10-x-x-- 
D-----------------------------------------------------------------------------

E-----------------------------------------------------------------------------
B----------------------------------------------------------------------------- 
G----------------------------------------------------------------------------- 
D----------------------------------------------------------------------------- 
A-9--9--9-9-9----------------------------------------------------------------- 
D-----------------------------------------------------------------------------



There are more parts to the song but this is what I have right now.
Show more