Intro/Verse Standard Tuning 

  PM...........|                                  ~~~~~
||------------------------|-----------------------------|-0--0-0-0-0----------
||------------------------|-----------------------------|-0--0-0-0-0----------
||.-----------------------|-----------------------------|-9--9-9-9-9----------
||------------------------|11-11-11-9---9-11/  14--14--|-9--9-9-9-9----------
||.-7-7-7-6-6-6---6h7p6-0-|-0--0--0-0---0--0--------0---|-7--7-7-7-7----------
||--9-9-9-9-9-9-----------|-----------------------------|-0--0-0-0-0----------
                                                  

-0-0-0-0--0--0--|-0--0-0-0-0---0-0-0-0---0-0--||------------------------------
-0-0-0-0--0--0--|-0--0-0-0-0---0-0-0-0---0-0--||------------------------------
-9-9-9-9--9--9--|-8--8-8-8-8---8-8-8-8---8-8-.||------------------------------
-9-9-9-9--------|-9--9-9-9-9---9-9-9-9---9-9--||------------------------------
-7-7-7-7--------|-9--9-9-9-9---9-9-9-9---9-9-.||------------------------------
-0-0-0-0--------|-7--7-7-7-7---7-7-7-7---7-7--||------------------------------
Chorus                                                                              

||--2--2-2-2-2-----2-2-2-2--2--|-2--2-2--2-2--2-2-2-2--2-2--------------------
||--2--2-2-2-2-----2-2-2-2--2--|-2--2-2--2-2--2-2-2-2--2-2--------------------
||.-4--4-4-4-4-----4-4-4-4--4--|-3--3-3--3-3--3-3-3-3--3-3--------------------
||--4--4-4-4-4-----4-4-4-4--4--|-4--4-4--4-4--4-4-4-4--4-4--------------------
||.-2--2-2-2-2-----2-2-2-2--2--|-4--4-4--4-4--4-4-4-4--4-4--------------------
||-----------------------------|-2--2-2--2-2--2-2-2-2--2-2--------------------
                                                                              

-4--4-4-4-4---4-4-4-4---4-4--|-4--4-4-4-4---4-4-4-4----4-4---||---------------
-4--4-4-4-4---4-4-4-4---4-4--|-4--4-4-4-4---4-4-4-4----4-4---||---------------
-6--6-6-6-6---6-6-6-6---6-6--|-5--5-5-5-5---5-5-5-5----5-5--.||---------------
-6--6-6-6-6---6-6-6-6---6-6--|-6--6-6-6-6---6-6-6-6----6-6---||---------------
-4--4-4-4-4---4-4-4-4---4-4--|-6--6-6-6-6---6-6-6-6----6-6--.||---------------
-----------------------------|-4--4-4-4-4---4-4-4-4----4-4---||---------------


------------------------------------------------------------------------------
------------------------------------------------------------------------------
------------------------------------------------------------------------------
------------------------------------------------------------------------------
------------------------------------------------------------------------------
------------------------------------------------------------------------------


------------------------------------------------------------------------------
------------------------------------------------------------------------------
------------------------------------------------------------------------------
------------------------------------------------------------------------------
------------------------------------------------------------------------------
------------------------------------------------------------------------------


------------------------------------------------------------------------------
------------------------------------------------------------------------------
------------------------------------------------------------------------------
------------------------------------------------------------------------------
------------------------------------------------------------------------------
------------------------------------------------------------------------------

I know this probably isn't the whole song, but if you know any more of the song parts post them under comments.
Thanks
Show more