T1: Kalan Robb, roo_boy99@hotmail.com, Creed, Pity For a Dime 

   Another good song from creed. Enjoy!, Pity for A Dime 
   Creed 
   By Kalan Robb 

   This pretty much seems exact except for some of the solo 
   which I am not positive on. 

   verse: Play this first 6 times on the CD by WindUp Records. 
   e------------------------------5-5-------------| 
   B------------------------5-4---5-5-------------| 
   G--9-99-----------------6---6--6-6-------------| 
   D--9-99----------------6-----6-7-7-------------| 
   A--7-77---7-6-6h7p6/4----------7-7--7----9-7---| 
   E--0-00------------------------5-5----5/7------| 

   this part after he sais "nothing left to blame". 
   e----------------------------------------------------------| 
   B----------5--------4-4---7-7-----------5--------4-4---5-5-| 
   G-9-9---6------6----5-5---8-8---9-9--6------6----5-5---6-6-| 
   D-9-9----6---6--6---6-6---9-9---9-9---6---6--6---6-6---7-7-| 
   A-7-7-----4------4--6-6---9-9---7-7----4------4--6-6---7-7-| 
   E-0-0---------------4-4---7-7---0-0--------------4-4---5-5-| 

   chorus: so I sit down for awhile... 
   e----------------------------------------------------------| 
   B--9-99-9-99-9-9---3-33-3-33-33-33-4-44--2-22-222----------| 
   G--9-99-9-99-9-9---4-44-4-44-44-44-4-44--3-33-333----------| 
   D--9-99-9-99-9-9---5-55-5-55-55-55-4-44--4-44-444----------| 
   A--7-77-7-77-7-7---5-53-5-55-55-55-2-22--4-44-444----------| 
   E--0-00-0-00-0-0---3-33-3-33-33-33-------2-22-222----------| 

   Bridge Intro: 
   e--0-0--0h3-0---0----0-0---------------------| 
   B--0-0--0---0h3-0----0-0---------------------| 
   G--1-1--1---1---1h2--1-1-x-------------------| 
   D--2-2--2---2---2----2-2-x-------------------| 
   A--2-2--2---2---2----2-2-x-------------------| 
   E--0-0--0---0---0----0-0--00-3p0-0-3p0-0-3-0-| 
   e--0-0--0h3-0---0----0-0---------------------| 
   B--0-0--0---0h3-0----0-0---Heavy-------------| 
   G--1-1--1---1---1h2--1-1-x-Distortion--------| 
   D--2-2--2---2---2----2-2-x-kicks in now------| 
   A--2-2--2---2---2----2-2-x-------------------| 
   E--0-0--0---0---0----0-0--00-3p0-0-3p0-0-3-0-| 

   ..talk to me the easy 
   e--0--33-0-3333-3-0----------------------------------------| 
   B--0--00-0-0000-0-0----03333-3330-3---555-33--444-44-------| 
   G--1--11-1-1111-1-1----11111-1111-1---555-44--444-33-------| 
   D--2--22-2-2222-2-2----22222-2222-2---555-55--444-44-0-4545| 
   A--2--22-2-2222-2-2----22222-2222-2---333-55--222-44-0-4545| 
   E--0--00-0-0000-0-0----00000-0000-0---333-33--222-22-0-2323| 
   then it goes back into the chorus. Then solo. During the 
   solo it is kinda like this but the bass is just playing E,E 
   C-G,B-F#. 

   Alright, I finally got to see Creed in concert and I think 
   that this solo is pretty much what Mark plays. However, 
   do not leave out the fact that I was drinking. 
   e-------------------------------------------------------| 
   b-------------------------------------------------------| 
   g-------------------------------------------------------| 
   d------------------------------14-----------------------| 
   a--12^~--12-10--10~-------10-----------101010-10h12p10--| 
   E-------------12-----10-12--12~----10h12--------------12| 
   e--15---14-------------------------------------------| 
   b----15---14\---15^----------------------------------| 
   g---------------15^----16p14-------------------------| 
   d---------------------------17-14-17-17-14------12---| 
   a------------------------------------------12-14--14-| 
   E----------------------------------------------------| 

   e-------------------------------------------------------| 
   b------------1212-12h13p12--12--------------------------| 
   g-------12----------------14--14-12-11h12p11--11--------| 
   d---------14--------------------------------14--14-13---| 
   a--12-14---------------------------------------------14-| 
   E-------------------------------------------------------| 
   As for all the X's, I have no idea what he plays here but 
   I know it's fast and double picked. 
   e------------------------------------------------| 
   b------------------------------------------------| 
   g---------------------xxxx-----------------------| 
   d-----------------xxxx----xxxx-------------------| 
   a------------xxxx-------------xxxx---------------| 
   E--1212-xxxx----------------------xxxx-1212-xxxx-| 

   e------------------------------------------------------| 
   B------------------------------------------------------| 
   G---------xxxx---------------------------11------------| 
   D-----xxxx----xxxx-----------------xxxx----13-14-11-13-| 
   A-xxxx------------xxxx---------xxxx--------------------| 
   E---------------------1212-xxxx------------------------| 
   e--------------12-12-15p12h14p12h15p12h17p12h15p12h14p12h--| 
   B----------------------------------------------------------| 
   G----------------------------------------------------------| 
   D----------------------------------------------------------| 
   A-14-15-12-14----------------------------------------------| 
   E----------------------------------------------------------| 
   e-15p12h14p12h15p12h17p12h15p12h14p12h15p12h14p1212h14p12--| 
   B----------------------------------------------------------| 
   G----------------------------------------------------------| 
   D----------------------------------------------------------| 
   A----------------------------------------------------------| 
   E----------------------------------------------------------| 
   e--14p1212h1515p1212h1717^full-----------------------------| 
   B----------------------------------------------------------| 
   G----------------------------------------------------------| 
   D----------------------------------------------------------| 
   A----------------------------------------------------------| 
   E----------------------------------------------------------| 
   chorus again right after the solo. That is probably not the 
   best rendition of the solo in the middle parts but it will 
   give you a start and might make someone else start working 
   on it also, for later posting. 


   Tabbed by Kalan Robb at roo_boy99@hotmail.com
Show more