Creed
Pity For A Dime

Transcribed By: Ryan Huntsman  (IbanezBassMX)
Email: Ryan82184@aol.com

Standrad Tunning: for once

Intro
G-----------------------------------------
D-----------------------------------------
A-7--7-7-0-4-7-6-6h7h6-4~------------9-7--
E--------------------------5-5-0-5-7------

Chorus
G------------------------------------------------------------
D------------------------------------------------------------
A-7-7-7-7-7-7-7-7-7-------------------2-2-2------------------
E-------------------3-3-3-3-3-3-3-3-3-------2-2-2-2-2-2-2-2--

G----------------------------------------------------------
D----------------------------------------------------------
A--------5h7-----7---7-7-710----5h7---10-7-7-10-7-7-10-7--
E-0--0-0-----0-0---0-----------0-----0---------------------

Plain talk can be the easy way...
G------------------------------------------
D------------------------------------------
A--------5h7---7---7-7-710-10-------------
E-0--0-0-----0---0-------------0--0-0-0-0--

G-------------------------------------------------
D-------------------------------------------------
A-10-7---10---1014--3-3-3-----2-2-2--------------
E------0----0--------------3-3-------2-0-2-0-3-0--

Signs of losing my faith...
G-------------------------------------------
D-------------------------------------------
A--------5h7---7---7-7-710-10---5h7---7----
E-0--0-0-----0---0-------------0-----0---0--

G----------------------------------------------
D-7-6-5----------------------------------------
A-------7-6-5-----3-3-3-----2-2-2--------------
E-------------7-5-------3-3-------2-0-2-0-3-0--

Chorus
G------------------------------------------------------------
D------------------------------------------------------------
A-7-7-7-7-7-7-7-7-7-------------------2-2-2------------------
E-------------------3-3-3-3-3-3-3-3-3-------2-2-2-2-2-2-2-2--

Solo
G------------------------------------------
D------------------------------------------
A--------5h7---7---7-7-710-10-------------
E-0--0-0-----0---0-------------0--0-0-0-0--

G-------------------------------------------------
D-------------------------------------------------
A-10-7---10---1014--3-3-3-----2-2-2--------------
E------0----0--------------3-3-------2-0-2-0-3-0--

G-------------------------------------------
D-------------------------------------------
A--------5h7---7---7-7-710-10---5h7---7----
E-0--0-0-----0---0-------------0-----0---0--

G----------------------------------------------
D-7-6-5----------------------------------------
A-------7-6-5-----3-3-3-----2-2-2--------------
E-------------7-5-------3-3-------2-0-2-0-3-0--

Chorus
G------------------------------------------------------------
D------------------------------------------------------------
A-7-7-7-7-7-7-7-7-7-------------------2-2-2------------------
E-------------------3-3-3-3-3-3-3-3-3-------2-2-2-2-2-2-2-2--

Outro
G-------------------------------------------
D-------------------------------------------
A--------5h7---7---7-7-710-10---5h7---7----
E-0--0-0-----0---0-------------0-----0---0--

G----------------------------------------------
D-7-6-5----------------------------------------
A-------7-6-5-----3-3-3-----2-2-2--------------
E-------------7-5-------3-3-------2-0-2-0-3-0--

G-------------------------------------------------------------
D-------------------------------------------------------------
A-3-3-3-----2-2-2-------------3-3-3-----2-2-2-----------------
E-------3-3-------2-0-2-0-3-0-------3-3-------2-0-2-0-3-0-0~--   Fade out

-------------------------------------------------------------------------------------

Guitar Solo
G-2fb--2fb~h0---0----------12-----------------0-2b~h0------19----18-----------
D-------------2------12-14----14--14------0-2---------2-------19-----18--18/--
A-------------------------------------0h2---------------0---------------------
E-----------------------------------------------------------------------------

G--------------------------------------------------------------------------
D--------------------------------------------------------------------------
A-7--7--7-7-7-7-7-7-7-7-7-7-7-7-7-7-7-7--7-7-7----3-3----4-4---------------
E----------------------------------------------0------7-------5-5-5-5-5-5--

G-15fb----15bb----15bb------------
D---------------------------------
A----------------------0-----15/--
E---------------------------------

G-----------------13-13-12--12----0-15fb--15fb----------------------------
D--------5-5-4--4---------------0---------------14-14fb~h12----12--12-----
A-3-2-2-----------------------------------------------------14--------14--
E-------------------------------------------------------------------------

G----------------------12------17-17--17h18h17-14-17-14-12-11h12h11-----------------
D-------12----------------14~/---------------------------------------14----14-13-----
A-12-14----14-14-12-14-----------------------------------------------------------14--
E-----------------------------------------------------------------------14-----------

G---------------------------------------------------------------------------------
D-------------------13-14-16-14-13-------------------------------13-14-16-114-13--
A----------12-14-15----------------15-14-12-------------12-14-15------------------
E-12-14-15----------------------------------15-12-14-15---------------------------

G-------------------------------------------------------------------17-17--
D----------------------------------13-13-16-13-14----13--------------------
A-15-14-12----------------12-14-15----------------15----14-15-12-14--------
E----------15-14-12-14-15--------------------------------------------------

G-20-17-19-20-19-17-22-17-19-20-19-17-20-17-19-20-19-17-22-17-19-20-19-17-20--
D-----------------------------------------------------------------------------
A-----------------------------------------------------------------------------
E-----------------------------------------------------------------------------

G-17-17-17-20-17-19-20-20-17-19-20-22-19-20-23b--
D------------------------------------------------
A------------------------------------------------
E------------------------------------------------

Thats it, this song is so cool, I also included the guitar solo 
so you can learn to play that to. Please rate this tab, Thanks.
Show more