Nolan Montgomery

This should be pretty right 
-	
-	Creed 
-	Say I
-	
-	
-	
-	
-	
-	Intro Chorus 
-	
            ------------------------------------------------------------------------
-	-----------------------------------------------------------------------
-	-----5--5----5-----5---5-------5-----5---5-----5------7---7------7--^--
-	-----3--3----5-----3---3-------5-----3---3-----5------5---5------7--^--
-	-----3--3----3-----3---3-------3-----3---3-----3------5---5------5--^--
-	-----3--3----------3---3--------------3---3------------5---5-----------
-	
-	
-	-----------------------------------------------------------------------
-	----7---7-----7-^------------------5--------5--------7
-	----5---5-----7-^------------------5--------5--------7-----------------
-	----5---5-----5-^------------------3--------3--------5-----------------
-	----5---5-------------------0000------00-------00
-	
-	opens are palm muted 
-	
-	

-	Verse 
-	   ---5------------------------------------------------------------
-	   -------3 ----------------------------------8 -----------7------ 
-	   -------------23 ----------3p0h2---------8 ----------7 -----------
-	   ----------0------------ --------------0 ----------0 -------------
-	 ----0 -----------------------------------------------------------------
      

      --------------------------------------
      -------10-------10---------10----------
      ----8-------8----------8-------------
      -----------------------------------------
     ------------------------------------------- 


    --------------------------------------------
   -----10-----10-------10--------10---------
   --7------7--------7---------7--------------
   ----------------------------------------------
   ---------------------------------------------
   --------------------------------------------


   ---------------------------------------------
   -------10------10------11---10-----------
   ----8------8--------8----------------------
   ----------------------------------------------
   ----------------------------------------------
   ---------------------------------------------



Solo
palm mute
   ---------------------------------------------------------------------------------
   -----------------------------------------910----910---910---------------------
   --------------------------open------------------------------------------12--11--12---11---10-
   ------2-----2----2--------2------------------------------------------------------
   ------2-----2----2--------2------------------------------------------------------
   ------0-----0----0--------0------------------------------------------------------
palm mute
   -------------------------------------------------
   ------------------------------------------------
   -----------------------open------------------
   ----2--2-----2---2-----2--------------------
   ----2--2-----2---2-----2--------------------------
   ----0--0-----0---0-----0-----------------------


that is about it I hope u like it I tabbed it about a week ago and it sounds right to me
leave you to find you order
Show more