Creed
Sister

Transcribed By: Ryan Huntsman  (IbanezBassMX)
Email: Ryan82184@aol.com

Tunning: Drop D
(D,A,D,G)

Intro 1  
G-----------------------------
D-----------------------------  
A-9-10-12-12-12-12--10-9-5-5--
D-----------------------------

Intro 2
G----------------------------------
D----------------------------------  
A-7-7-7-8-8-8-8-9-9-9-10-10-10-10--
D----------------------------------

G----------------------------------------------------------------
D----------------------------------------------------------------
A-7h8-5-7h8-5-5--7h8-5-7h8-5-5--7h8-10-7h8-10-10--7h8-5-7h8-5-5--
D----------------------------------------------------------------

Intro 3 & Verses
G---------------------------------------
D-------7--------0--------0--------0-7--  
A---7-9------7-9------7-9------7-9------
D-0--------0--------0--------0----------

Pre-chorus 1
G-------------------------------------------
D-------------------------------------------
A--------------------------------9h10-9h10--
D-0-0-10-9-0-0-9-8-0-0-8-7-0-0-0------------

Pre-chorus 2
G---------------------------------------
D---------------------------------------
A----------------------------5-5-7-9-9--
D-0-0-10-9-0-0-9-8-0-0-8-7-0------------

Chorus
G-------------------------------------------------
D-------------------------------------------------
A--------2--2-2-2-2-0--0-0-0-0--------------------
D-0--0-0-----------------------5-5-5-5-5-0-0-0-0--

Thats it.  
This song is pretty easy to learn.
Please rate this tab, Thanks
Any questions, just email me at Ryan82184@aol.com

Song Structure:

Intro 1       X2
Intro 2       X1
Intro 3       X8
Pre-chorus 1  X3
Pre-chorus 2  X5
Chorus        X4
Intro 1       X2
Intro 3       X4
Pre-chorus 1  X3
Pre-chorus 2  X5
Chorus        X4
Pre-chorus 2  X6
Intro 1       X2
Intro 2       X1
Intro 3       X4
End Song
Show more