#----------------------------------PLEASE NOTE--------------------------------#
#This file is the author's own work and represents their interpretation of the#
#song. You may only use this file for private study, scholarship, or research.#
#-----------------------------------------------------------------------------#
#-- File created with Instab - http://www.pconline.com/~smcarey/instab.html --#
#-----------------------------------------------------------------------------#

Author/Artist: Creed
Title: Torn
Album: My Own Prison
Transcribed by: Bryan Jarvinen
Email: ibanezgsr200bass@yahoo.com
Tuning: Drop-D

I didn't seperate this into parts, this is the whole song, 
without timing being shown.

-|--------------------------------------------------------------------------|-
-|-12---------------------------------3-------------------------3-3/5-5-5-5-|-
-|------3/5-5-5-5---5p3-3-0h3---5p3-3---0h3---5p3-3-0h3---5p3-3-------------|-
-|----0-----------0-----------0-------------0-----------0-------------------|-
                                                                              
-|--------------------------------------------------------------------------|-
-|---------------------3-------------------------3-3/5-5-5-5----------------|-
-|---5p3-3-0h3---5p3-3---0h3---5p3-3-0h3---5p3-3---------------5p3-3-0h3----|-
-|-0-----------0-------------0-----------0-------------------0-----------0--|-
                                                                              
-|--------------------------------------------------------------------------|-
-|-------3-------------------------3-3/5-5-5-5------------------------------|-
-|-5p3-3---0h3---5p3-3-0h3---5p3-3-----------------------------3-3-3-3-3-3--|-
-|-------------0-----------0-------------------3-3-3-3-3-3-3-3--------------|-
                                                                            
-|--------------------------------------------------------------------------|-
-|--------------------------------------------------------------------------|-
-|-3-0-0-0-5-5---------------3-4-5-0-3-4-----------3-4-5-0-5-4-3-0----------|-
-|-------------0-0-0-3p0-0-0-------------0-0-0-3p0-----------------3-3-3-3--|-
                                                                              
-|--------------------------------------------------------------------------|-
-|--------------------------------------------------------------------------|-
-|---------3-3-3-3-3-3-3-0-0-0-5-5---------------3-4-5-0-3-4-----------3-4--|-
-|-3-3-3-3-------------------------0-0-0-3p0-0-0-------------0-0-0-3p0------|-
                                                                              
-|--------------------------------------------------------------------------|-
-|--------------------------------------------------------------------------|-
-|-5-0-5-4-3-0-----------3-3-3-3-3-3-3-----------5-5-5-5-5-5-5-----------8--|-
-|-------------3-3-3-3-3---------------5-5-5-5-5---------------8-8-8-8-8----|-
                                                                              
-|---------------------2p0--------------------------------------------------|-
-|-------------------------2p0----------------------------------------------|-
-|-8-8-8-8-8-8-0-0-0-0---------3----------------3-3-3-3-3-3-3-----------5-5-|-
-|-------------------------------3-5b-3-3-3-3-3---------------5-5-5-5-5-----|-
                                                                              
-|-------------------------------------------2p0----------------------------|-
-|-----------------------------------------------2p0------------------------|-
-|-5-5-5-5-5-----------8-8-8-8-8-8-8-0-0-0-0---------3--------5p3-3-0h3-----|-
-|-----------8-8-8-8-8---------------------------------3-5b-0-----------0---|-
                                                                              
-|--------------------------------------------------------------------------|-
-|-------3-------------------------3-3/5-5-5-5---------------------3--------|-
-|-5p3-3---0h3---5p3-3-0h3---5p3-3---------------5p3-3-0h3---5p3-3---0h3----|-
-|-------------0-----------0-------------------0-----------0-------------0--|-
                                                                              
-|--------------------------------------------------------------------------|-
-|-------------------3-3/5-5-5-5---------------------3----------------------|-
-|-5p3-3-0h3---5p3-3---------------5p3-3-0h3---5p3-3---0h3---5p3-3-0h3------|-
-|-----------0-------------------0-----------0-------------0-----------0----|-
                                                                              
-|--------------------------------------------------------------------------|-
-|-------3-3/5-5-5-5--------------------------------------------------------|-
-|-5p3-3-----------------------------3-3-3-3-3-3-3-0-0-0-5-5----------------|-
-|-------------------3-3-3-3-3-3-3-3-------------------------0-0-0-3p0-0-0--|-
                                                                              
-|--------------------------------------------------------------------------|-
-|--------------------------------------------------------------------------|-
-|-3-4-5-0-3-4-----------3-4-5-0-5-4-3-0-----------------3-3-3-3-3-3-3-0-0--|-
-|-------------0-0-0-3p0-----------------3-3-3-3-3-3-3-3--------------------|-
                                                                              
-|--------------------------------------------------------------------------|-
-|--------------------------------------------------------------------------|-
-|-0-5-5---------------3-4-5-0-3-4-----------3-4-5-0-5-4-3-0-----------3-3--|-
-|-------0-0-0-3p0-0-0-------------0-0-0-3p0-----------------3-3-3-3-3------|-
                                                                              
-|-------------------------------------------------------------------2p0----|-
-|--------------------------------------------------------------------------|-
-|-3-3-3-3-3-----------5-5-5-5-5-5-5-----------8-8-8-8-8-8-8-0-0-0-0--------|-
-|-----------5-5-5-5-5---------------8-8-8-8-8------------------------------|-
                                                                              
-|--------------------------------------------------------------------------|-
-|-2p0----------------------------------------------------------------------|-
-|-----3----------------3-3-3-3-3-3-3-----------5-5-5-5-5-5-5-----------8-8-|-
-|-------3-5b-3-3-3-3-3---------------5-5-5-5-5---------------8-8-8-8-8-----|-
                                                                              
-|-------------------2p0----------------------------------------------------|-
-|-----------------------2p0------------------------------------------------|-
-|-8-8-8-8-8-0-0-0-0---------3------5-5-3-3-2-2-0-0-----5-5-----5-5-4-4-----|-
-|-----------------------------3-5b-----------------3-5-----5-5---------3-3-|-
                                                                              
-|--------------------------------------------------------------------------|-
-|--------------------------------------------------------------------------|-
-|-----4-5-3-0--------------------------------------------------------------|-
-|-5-5---------5-3-3-3-3-3-3-3-3-3-3-3-3-3-3-3-3-2-2-2-2-2-2-2-2-2-2-2-2-2--|-
                                                                              
-|--------------------------------------------------------------------------|-
-|--------------------------------------------------------------------------|-
-|-------5-5-3-3-2-2-0-0-----5-5-----5-5-4-4---------4-5-3-0----------------|-
-|-2-2-2-----------------3-5-----5-5---------3-3-5-5---------5-3-3-3-3-2-2--|-
                                                                             
-|--------------------------------------------------------------------------|-
-|--------------------------------------------------------------------------|-
-|---------------------------3-2-------5-----5-4-------4-5-3-0--------------|-
-|-3-5-5-2-2-2-2-0-0-2-3-3-0-----3-3-5---3-5-----0-3-5---------5-3-3-3-3-2--|-
                                                                              
-|--------------------------------------------------------------------------|-
-|--------------------------------------------------------------------------|-
-|-----------------------------3-2-------5-----5-4-------4-5-3-0------------|-
-|-2-3-5-5-2-2-2-2-0-0-2-3-3-0-----3-3-5---3-5-----0-3-5---------5-3-3-3-3--|-
                                                                              
-|--------------------------------------------------------------------------|-
-|--------------------------------------------------------------------------|-
-|-------------------------------3-2-------5-----5-4-------4-5-3-0----------|-
-|-2-2-3-5-5-2-2-2-2-0-0-2-3-3-0-----3-3-5---3-5-----0-3-5---------5-3-3-3--|-
                                                                              
-|--------------------------------------------------------------------------|-
-|-------------------------------------------------------3------------------|-
-|-------------------------------------5p3-3-0h3---5p3-3---0h3---5p3-3-0h3--|-
-|-3-2-2-3-5-5-2-2-2-2-2-2-2-2-2-2-2-0-----------0-------------0------------|-
                                                                              
-|--------------------------------------------------------------------------|-
-|---------3-3/5-5-5-5---------------------3-------------------------3-3/5--|-
-|---5p3-3---------------5p3-3-0h3---5p3-3---0h3---5p3-3-0h3---5p3-3--------|-
-|-0-------------------0-----------0-------------0-----------0--------------|-
                                                                              
-|-------------------------------------2p0----------------------------------|-
-|-5-5-5-----------------------------------2p0------------------------------|-
-|---------3---5---8-0-----3---5---8-0---------3----------------3-3-3-3-3-3-|-
-|-------3---5---8-----5-0---5---8---------------3-5b-3-3-3-3-3-------------|-
                                                                              
-|-----------------------------------------------------------2p0------------|-
-|---------------------------------------------------------------2p0--------|-
-|-3-----------5-5-5-5-5-5-5-----------8-8-8-8-8-8-8-0-0-0-0---------3------|-
-|---5-5-5-5-5---------------8-8-8-8-8---------------------------------3-5b-|-
                                                                              
-|--------------------------------------------------------------------------|-
-|--------------------------------------------------------------------------|-
-|-----------3-3-3-3-3-3-3-----------5-5-5-5-5-5-5-----------8-8-8-8-8-8-8--|-
-|-3-3-3-3-3---------------5-5-5-5-5---------------8-8-8-8-8----------------|-
                                                                              
-|---------2p0--------------------------------------------------------------|-
-|-------------2p0----------------------------------------------------------|-
-|-0-0-0-0---------3--------3-2-------5-----5-4-------4-5-3-0---------------|-
-|-------------------3-5b-0-----3-3-5---3-5-----0-3-5---------5-3-3-3-3-2-2-|-
                                                                              
-|-----------------------------|-
-|-----------------------------|-
-|-----------------------------|-
-|-3-5-5-2-2-2-2-0-0-2-3-3-0-0-|-

That's it. Pretty easy song. Timing is the killer in this song.
                                                                            
Totals -
Staffs: 26                                         
Notes: 897
Time: 6:20
Show more