#----------------------------------PLEASE NOTE--------------------------------#
#This file is the author's own work and represents their interpretation of the#
#song. You may only use this file for private study, scholarship, or research.#
#-----------------------------------------------------------------------------#
#-- File created with Instab - http://www.pconline.com/~smcarey/instab.html --#
#-----------------------------------------------------------------------------#

Author/Artist: Creed
Title: Wash Away Those Years
Album: Human Clay
Transcribed by: Ryan Clements
Email: disconnected416@yahoo.com

This is an easy song, and I'm 99% sure this tab is right.
 All the other tabs for this song just dont sound good, 
so heres a good one.

You'll have to skip around with the choruses to get 
them in the right order

Drop D Tuning

------------------------------------------------------------------------------
--6-----6---6---5-----5h6---5h6---5h6p5--3---3h5---3h5---3h5---3----2---2h3---
--5h7---5---5---5-----5-----5-----5------3---3-----3-----3-----2----2---2-----
------0---0---0-----0-----0-----0-----0----0-----0-----0-----0----------------
------------------------------------------------------------------------------
------------------------------------------------------------------------------
     Intro       repeat a few times...                                        

-----------------|------------------------------------------------------------
---3-------/6----|------------------------------------------------------------
---2-------/5----|------------------------------------------------------------
-0---------------|------------------------------------------------------------
-----------------|------------------------------------------------------------
-----------------|------------------------------------------------------------
                                                                              

------------------------------------------------------------------------------
------------------------------------------------------------------------------
--5---5--5--5-5-5--5-5-5--5-5-5-5-5---4-4-4-4/7-7-7--7-7-7--7-7-7-7--7-7-7----
--3---3--3--3-3-3--5-5-5--5-5-5-5-5---5-5-5-5/7-7-7--7-7-7--7-7-7-7--7-7-6----
--3---3--3--3-3-3--0-0-2--2-2-2-2-2-2-2-2-2-2/5-5-5--5-5-5--5-5-5-5--0-0-6----
--3---3--3--3-3-3--0-0-2--2-2-2-2-2-2-2-2-2-2/5-5-5--5-5-5--5-5-5-5--0-0-6----
      Chorus#1                                                                

----------------------------|----------------------------------|--------------
----------------------------|----------------------------------|--------------
-7--7--7-7-7-7-7/10---9--0--|-----7-7-7-5---5---7--7------7v---|--------------
-6--0--0-0-0-0-0------0--0--|-----0-0-0-0---0-0-0--5------0----|--------------
-6--0--0-0-0-0-0------0-----|-----0-0-0-0---0-0-0--5------0----|--------------
-6--0--0-0-0-0-0------0-----|-----0-0-0-0---0---0--5------0----|--------------
                                                                              

------------------------------------------------------------------------------
-6---6---6---5-----5h6---5h6---5h6---3--------3h5---3h5---3h5---3--2--2h3----
-5---5---5---5-----5-----5-----5------3--------3-----3-----3-----2-----2------
---0---0---0-----0-----0-----0------0--------0-----0-----0-----0-----------0--
------------------------------------------------------------------------------
------------------------------------------------------------------------------
     Interlude (intro basically, a little different)                          

------------------------------------|-------------|---------------------------
---3h5---3h5---3h5---3---2--2h3---3-|-------------|---------------------------
---3-----3-----3-----3---2--2-----2-|-------------|---------------------------
-0-----0-----0-----0------------0---|-------------|---------------------------
------------------------------------|-----------3-|---------------------------
------------------------------------|--0h3^--0----|---------------------------
                                      (little fill)                           

------------------------------------------------------------------------------
------------------------------------------------------------------------------
-5---5---5--5-5-5------4----4--4--4-4--4-4-4--4-4-4----7----7---7--7-7-7------
-3---3---3--3-3-3-*-*--5----5--5--5-5--5-5-5--5-5-5----5----5---5--5-5-5-*-*--
-3---3---3--3-3-3---0--2----2--2--2-2--2-2-2--2-2-2/5--5----5---5--5-5-5---0--
-3---3---3--3-3-3-0-0--2----2--2--2-2--2-2-2--2-2-2/5--5----5---5--5-5-5-0-0--
    Chorus#2 (chorus 1, but different, and alot longer)                  p.m  

--------------------------------------|---------------------------------------
--------------------------------------|---------------------------------------
-7---7-7---7--7-------10----9---0-----|----7------7----7--7-7-7------7--------
-6---5-6---0--0-------0-----0---0-----|----7------7----7--7-7-7--*-*-6--------
-6---5-6---0-------0------------------|----5------5----5--5-5-5----0-6--------
-6---5-6---0-----0-0------------------|----5------5----5--5-5-5--0-0-6--------
                                                                 p.m.         

---------------------------------|------------------------------------|-------
---------------------------------|------------------------------------|-------
--7-7-7----7--7-------10-10--9---|-7--7-------7---7--7--7--5--5--0--7-|-------
--6-5-6----0--0-------0--0---0---|-6--5--6----0---0--0--0--0--0--0--5-|-------
--6-5-6----0-------0-------------|-6--5--6----0---0-----------------5-|-------
--6-5-6----0-----0-0-------------|-6--5--6----0---------------------5-|-------
                                                                              

------------------------------------------------------------------------------
------------------------------------------------------------------------------
--7v---------------------------7v---------------------------------------------
--0----------------------------5v------------------------*--------------------
--0----------------------------5v------------------------0--------------------
--0----------------------------5v------------------------0--------------------
  then theres this fill right before the bridge.....     p.m.                 

------------------------------------------------------------------------------
------------------------------------------------------------------------------
-3--3--3--------------------------------------3/53---3-3-3/5--5-5-5--5-5-----
-1--1--1--3/5--3--1p0--3----3-3--3-3--3--3-3--x-------3-3-3/5--5-5-5--5-5-----
-1--1------------------1----1-1--1-1--1--1-1--1/31---1-1-1/3--3-3-3--3-3-----
-1--1-------------------------------------------------------------------------
 Bridge (this parts cool)                                                     

--------------------------------------------------|---------------------------
--------------------------------------------------|---------------------------
-5/7--5-------------------------------------------|---------------------------
-5/7--5-------7------7-------7h8--8--8p7p5-7------|---------------------------
-----------x--5------5--5----5----5--5---------x--|---------------------------
---------x-x--5------5--5-5-------5----------x-x--|---------------------------
                   repeat a few times                                         

------------------------------|--|--------------------------------------------
------------------------------|--|--------------------------------------------
------------------------------|--|--------------------------------------------
--8--8p7p5-7p5--7----7--7-7h8-|x2|-7h8--8-------------------------------------
--5--5-----5----5----5--5-5---|--|-5----5-------------------------------------
----------------5----5--5-----|--|---------/15-------------------------------
  then this at the end...                                                     

------------------------------------------------------------------------------
------------------------------------------------------------------------------
-7--7--7----5--5--5-----7------7v--------7--7v--------------------------------
-5--6--0----0--0--0-----5------0---------0--5v------------------*-------------
-5--6--0----------------5------0------------5v------------------0-------------
-5--6--0----------------5------0------------5v------------------0-------------
 wrap it all up with this.......                                p.m.
Show more