This song is very cool and also very correct, dis lekker!
Tabbed by Kyle W


Intro/Verse - 
-3p0--------------------------------------0---------------2p0-2/4-0-----0--|
---------0-----------------0-----------------------------------------------|
------0-----------------------0--------------------------------------3-----|
------------0--------------------0------------0-5p3-0~---------------------|
-3-------------3-2---2~----------------------------------------------------|
-------------------------------------3/5--5--------------------------------|
                                                                              
-3p0--------------------------------------0--------------------7^--|
------0--------------------0-----------------------------12^---7^--|
---------0--------------------0--------------------------12^---7^--|
------------0--------------------0-------------5p3p0~--------------|
-3-------------3-2---2~--------------------------------------------|
-------------------------------------3/5--5------------------------|


Verse - (play with minor variations)
-3p0--------------------------------------0---------------2p0-2/4-0-----0--|
---------0-----------------0-----------------------------------------------|
------0-----------------------0--------------------------------------3-----|
------------0--------------------0------------0-5p3-0~---------------------|
-3-------------3-2---2~----------------------------------------------------|
-------------------------------------3/5--5--------------------------------|

Play this at 0:54 \"Maybe I can\'t accept the life that\'s mine . . .\"
-3p0--------------------------------------0-----------------------|
------0--------------------0--------------------------------------|
---------0--------------------0-----------------------------------|
------------0--------------------0-------------5p3p0~-----5^--5^--|
-3-------------3-2---2~-------------------------------------------|
-------------------------------------3/5--5-----------------------|         

Going into first chorus -
---------|
---------|
---------| with distortion (in at 1:31) 
-3h5-----|
------5--|
---------|                                                                    


Chorus - "Me . . .I rusted and weathered . . ."
----------------------------------------|
----------------------------------------|
----5-5-5-5-5-----1-1-------------------|
-0--0-0-0-0-0--0--3-3--0--3-3-3-3-3--0--|
-0--0-0-0-0-0--0--1-1--0--3-3-3-3-3--0--|
-0--0-0-0-0-0--0-------0--3-3-3-3-3--0--|

"Barely holding together . . ."                                
-------------------------------|
-------------------------------|                                              
---3/5--3----------------------|
0----------0--5-5-5-5-5-5-5-5--|
0--3/5--3--0--5-5-5-5-5-5-5-5--|
0----------0--5-5-5-5-5-5-5-5--|

"I'm covered with skin . . . . . . . .”
---------------------------------------|
---------------------------------------|
---------------------------------------|
-8--------8--------8--------8------0~--|
-8--------8--------8--------8------0~--|
---8-8-8----8-8-8----8-8-8----8-8--0~--|
* * * * * * * * * * * * * * * * * * * * 

“That peals and it just . . . . won’t heal"
---------------------------------------------|
---------------------------------------------|
---------------------------------------------|
------5--------5--------5----5--0--5p3-0-3b--|
------5--------5--------5----5--0--5p3-0-3b--|
--5-5---5--5-5---5--5-5---5—-5--0--5p3-0-3b--|
* * * * * * * * * * * * * * * * * * * * * * *

Going into verse 2 - (with distortion)
-----------------|
-----------------|
-----------------|
-3h5--3h5--3-----|
--------------5--|
-----------------|                                                            


Going into 2nd chorus - 
--------------|------------------------------------------------------|
--------------|------------------------------------------------------|
--------------|------------------------------------------------------|
-3--3h5p3-----|--0-0--2.7^-2.7^-2.7^-2.7^--0-0--2.7^-2.7^-2.7^-2.7^--| 
-----------5--|--0-0--2.7^-2.7^-2.7^-2.7^--0-0--2.7^-2.7^-2.7^-2.7^--|
--------------|--0-0--2.7^-2.7^-2.7^-2.7^--0-0--2.7^-2.7^-2.7^-2.7^--|

2.7^ = harmonics between 2nd and 3rd frets.
                                                                              
Then it goes into chorus 

Bridge - 
--------------------------------------------------------------------|
--------------------------------------------------------------------|
-5-x-5-x-5-x-5-x-x-5-5-5-5/6-5--x--5-x-5-x-5-x-5-x-5-x-5-5---5/6-5--|
--------------------------------x--8-x-8-x-8-x-8-x-8-x-8-8----------|
-5-x-5-x-5-x-5-x-x-5-5-5-5------x--5-x-5-x-5-x-5-x-5-x-5-5---5------|
-0---0---0---0-----0-0-0-0---------0---0---0---0---0---0-0----------|

--------------------------------------------------------------------|
--------------------------------------------------------------------|
-5-x-5-x-5-x-5-x-x-5-5-5-5/6-5--x--1-x-1-x-1-x-1-x-1-x-1-1---1/2-1--|
--------------------------------x-----------------------------------|
-5-x-5-x-5-x-5-x-x-5-5-5-5------x--1-x-1-x-1-x-1-x-1-x-1-1---1---1--|
-0---0---0---0-----0-0-0-0---------0---0---0---0---0---0-0---0---0--|

Then a little later strum these chords - 
-------------------------------------------------------------|
-7---7---7---7-----7-7-7-7-----3---3---3---3---3-3-3-3---3/--|
-5-x-5-x-5-x-5-x-x-5-5-5-5--x--1-x-1-x-1-x-1-x-1-1-1-1---1/--|
----------------------------x----x---x---x---x---------------|
-5-x-5-x-5-x-5-x-x-5-5-5-5--x--1-x-1-x-1-x-1-x-1-1-1-1---1/--|
-0---0---0---0-----0-0-0-0-----0---0---0---0---0-0-0-0---0---|

Then at - \". . . fight . . . . to fight . . .\"
------------------------------------------------------|
------------------------------------------------------|
-1-1-1-1-1-1-1-1-1-1-1--------------------------------|
-3-3-3-3-3-3-3-3-3-3-3--0--5-5-5-5-5--0---5p3--0--3b--|
-1-1-1-1-1-1-1-1-1-1-1--0--5-5-5-5-5--0---5p3--0--3b--|
------------------------0--5-5-5-5-5--0---5p3--0--3b--|
Show more