• Song:

    Ferris Wheel

  • Artist:

    Donovan

  • Album:

    The Essential Donovan

Song: Ferris Wheel
Artist: Donovan
Album: Sunshine Superman
Tabbed by: Kris Pender

Intro (0:07-0:11)
G|----------------------------------| 
D|-----4----------------4-----------|
A|--------4--2------------4---2--2--| 
E|----------------------------------| 

Riff 1 - Verse
G|----------------------------------| 
D|-----4----------------4-----------|
A|--------4--2------------4---2--2--| 
E|--2----------------2--------------| 

Riff 2 - ''in the ferris wheel...''
G|-----------------| 
D|-----------1-----|
A|-----4---2----4--| 
E|--2----2---------|
Show more