• Song:

    Jabberwocky

  • Artist:

    Donovan

  • Album:

    HMS Donovan

Bassically the same part is playing in the whole song, except for the intro.

|------------------------------------------------------------------------|
|------------------------------------------------------------------------|
|------------------------------------------------------------------------|
|----0-2-3-2-0---2-0---0---0---0-----0-2-3-2-0---2-0---0---0---0-----0---|
|--0-----------3-----1---0---------------------3-----1---0---------------|
|----------------------------3---3-1-------------------------3---3-1---3-|


|-----------------------|
|-----------------------|
|-----------------------|
|--0-2-3-2-0----0-2---0-|
|-----------3------3----|
|-----------------------|

|----------------------------------------------------------------------------|
|----------------------------------------------------------------------------|
|----------------------------------------------------------------------------|
|----0-2-3-2-0---2-0---0---0---0-----0-2-3-2-0---2-0---0---0---2---0-2-3-2-0-|
|--0-----------3-----1---0---------------------3-----1-------0---0-----------|
|----------------------------3---3-1---------------------3-------------------|


And goes on and on and on, just count the times the last part, 'cause sometimes are 2 or 
times, so listen to the song and you will get me.
Show more