• Song:

    Caribbean Blue

  • Artist:

    Enya

  • Album:

    Only Time: The Collecti...

++++++++++++++++++++++++
| Enya- Caribbean Blue |
++++++++++++++++++++++++


"Do I believe the sky above is caribbean blue..."

Tuning: EADG


Intro
1.
G|-----------------------------------|
D|-----------------------------------|
A|-4~---------------4~---------------|
E|-----------------------------------|

2.
G|-------------------------------------------------|
D|-------------------------------------------------|
A|-0~----4~----2~----------0~----2~----4~----------|
E|-------------------2~----------------------4~----|

3.
G|-------------------------------------------------|
D|-------------------------------------2~----------|
A|-0~----4~----2~----------0~----2~----------------|
E|-------------------2~----------------------------|

Verse
"So the world goes round and round..."
4.
G|-------------------------------------------------|
D|-------------------------------------------------|
A|-0~----4~----2~----------0~----2~----4~----------|
E|-------------------2~----------------------4~----|

"They say the sky high above..."
5.
G|-------------------------------------------------|
D|-------------------------------------2~----------|
A|-0~----4~----2~----------0~----2~----------------|
E|-------------------2~----------------------------|

6.
G|---------------------------------------------------------------------------------------------|
D|-------------2~----2~----------------------------------------2~----2~------------------------|
A|-2~----0~----------------2~----0~----1~----1~----2~----0~----------------2~----0~----1~----1~|
E|---------------------------------------------------------------------------------------------|

7.
G|------------|
D|------------|
A|-2~---------|
E|------------|

Verse
"If every man says all he can..."
8.
G|-------------------------------------------------|
D|-------------------------------------------------|
A|-0~----4~----2~----------0~----2~----4~------2-4-|
E|-------------------2~----------------------4-----|

"Do I believe the sky high above..."
9.
G|-------------------------------------------------|
D|-------------------------------------2~----------|
A|-0~----4~----2~----------0~----2~----------------|
E|-------------------2~----------------------------|

10.
G|-------------------------------------------------|
D|-------------------------------------------------|
A|-0~----4~----2~----------0~----2~----4~------2-4-|
E|-------------------2~----------------------4-----|

11.
G|-------------------------------------------------|
D|-------------------------------------2~----------|
A|-0~----4~----2~----------0~----2~----------------|
E|-------------------2~----------------------------|

12.
G|-------------------------------------------------------|
D|-------------------------------0~----------------------|
A|-------3~----------0~----------------3~----1~----2~----|
E|-1~----------0~----------3~----------------------------|

13.
G|-----------------------------------------------------------|
D|-------------------------0~--------------------------------|
A|-3~----------0~----------------3~----------------3~--------|
E|-------0~----------3~----------------3~----3~--------------|

Verse
"If all you told was turned to gold..."
14.
G|-------------------------------------------------|
D|-------------------------------------------------|
A|-1~----5~----3~----------1~----3~----5~------3-5-|--x2
E|-------------------3~----------------------5-----|

Outro
15.
G|-------------------------------------------------|
D|-------------------------------------------------|
A|-1~----5~----3~----------1~----3~----5~------3-5-|--x8
E|-------------------3~----------------------5-----|

16.
G|-------------------|
D|-------------------|
A|-------------------|
E|-1~----------------|


Lyrics:


So the world goes round and round
with all you ever knew
They say the sky high above
Is Caribbean blue 

If every man says all he can,
If every man is true,
Do I believe the sky above
Is Caribbean blue 

If all you told was turned to gold,
If all you dreamed were new,
Imagine sky high above
In Caribbean blue ...



+++++++++++++++++++++++++++++++++
| RaiLeff                       |
| Underground__Dora@Hotmail.Com |
+++++++++++++++++++++++++++++++++
Show more