Intro
eb(----------------------0------------------)
bb(------2h4-2p0-----2/4-0---2--------------)
gb(----------------------1-1----------------)
db(----4-----------2-----2-2-------6--------)
ab(--2-------------------2-2---2/4---467624-)
Eb(--------------0-------0------------------)

eb(----------------------0-------------)
bb(------2h4-2p0-----2/4-0---2---------)
gb(----------------------1-1---4-6-666-)
db(----4-----------2-----2-2---4-6-666-)
ab(--2-------------------2-2---2-4-444-)
Db(--------------0-------0-------------)

Verse
eb(------------------------------------------------)
bb(------444-44------------------------------------)
gb(--4-4-444-44-8-8-888-88-------------------------)
db(--4-4-444-44-8-8-888-88-6-6-666-66-6/9-9-999-99-)
ab(--2-2-222-22-6-6-666-66-6-6-666-66-6/9-9-999-99-)
Db(------------------------4-4-444-44-4/7-7-777-77-)

Verse continued
eb(------------------------------------------------)
bb(------444-44------------------------------------)
gb(--4-4-444-44-8-8-888-88-------------------------)
db(--4-4-444-44-8-8-888-88-6-6-666-66-6/7-7-777-77-)
ab(--2-2-222-22-6-6-666-66-6-6-666-66-6/7-7-777-77-)
Db(------------------------4-4-444-44-4/5-5-555-55-)

Pre-Chorus
eb(-------------------------------------------------------)
bb(-------------------------------------------------------)
gb(--------------------------------------6-6--------------)
db(--9-9-9999-99-7-7-7777-77-9-9-9999-99-6-6-----6--------)
ab(--9-9-9999-99-7-7-7777-77-9-9-9999-99-4-4-2/4---467624-)
Eb(--7-7-7777-77-5-5-5555-55-7-7-7777-77------------------)

Chorus
eb(-----------------------------------------0-0-0000-000-)
bb(--4-4-4444-444-5-5-5555-555-4-4-4444-444-0-0-0000-000-)
gb(--4-4-4444-444-6-6-6666-666-4-4-4444-444-1-1-1111-111-)
db(--4-4-4444-444-6-6-6666-666-4-4-4444-444-2-2-2222-222-)
ab(--2-2-2222-222-4-4-4444-444-2-2-2222-222-2-2-2222-222-)
Eb(-----------------------------------------0-0-0000-000-)

Chorus continued
eb(---------------0-0-0000-000---------------0-0-0000-000-)
bb(--4-4-4444-444-0-0-0000-000-4-4-44--------0-0-0000-000-)
gb(--4-4-4444-444-1-1-1111-111-4-4-44--------1-1-1111-111-)
db(--4-4-4444-444-2-2-2222-222-4-4-44-8-8-88-2-2-2222-222-)
ab(--2-2-2222-222-2-2-2222-222-2-2-22-8-8-88-2-2-2222-222-)
Eb(---------------0-0-0000-000--------6-6-66-0-0-0000-000-)

Outro
eb(----------------------0--------------------)
bb(------2h4-2p0-----2/4-0---2----------------)
gb(----------------------1-1----------------4-)
db(----4-----------2-----2-2-------6--------4-)
ab(--2-------------------2-2---2/4---467624-2-)
Eb(--------------0-------0--------------------)
Show more