At about 0:25 guitar comes in

Intro              Main Verse Riff A
e|---------|---------------------------------------------------------------|
B|---------|---------------------------------------------------------------|
G|---------|---------------------------------------------------------------|
D|---------|-------------10-9---------7---9-----------7--------------------|
A|555--555-|--------------8-7---------5-0-7-----------5-0---------555------|
E|333--333-|----000000000-----0000000-------000000000-----0000000-333------|

Chorus 3x Riff B           after the third time play this: Riff C
e|--------------------|----------------------------------------------------|
B|--------------------|----------------------------------------------------|
G|--------------------|----------------------------------------------------|
D|--------------------|--3-3-2---------------------------------------------|
A|-----2-----2--5-5-5-|--1-1-0--2------------------------------------------|
E|-000-0-000-0--3-3-3-|---------0------------------------------------------|

Riff A, Riff B, Riff C

Solo 1 Gary Holt I believe
e|15p12--12-15p12h15p12--15p12h15p12--15p12--12-15p12h15p12--15p12h15p12---|
B|----15--------------15------------12------15-------------15-----------15-|
G|-------------------------------------------------------------------------|
D|-------------------------------------------------------------------------|
A|-------------------------------------------------------------------------|
E|-------------------------------------------------------------------------|

                                                  P.H 
e|15p12--12-17p12--12------------------------------------------------------|
B|-----15--------15---15-(15)------------------------------12h15p12--------|
G|--------------------14b(14b)r14--12-14-12--12-14-12~--/14----------------|
D|--------------------------------14--------14-----------------------------|
A|-------------------------------------------------------------------------|
E|-------------------------------------------------------------------------|


e|------------------------------------------15--14--13--12--11--12--13-----|
B|---12h15p12-17p12h15p12h17p12h15p12--15b~---17--16--15--14--13--14--15---|
G|-14----------------------------------------------------------------------|
D|-------------------------------------------------------------------------|
A|-------------------------------------------------------------------------|
E|-------------------------------------------------------------------------|

if you have 24 frets you can just slide up to it.
        (Half step)  
e|/22b~---------------------15-----12----12-15-12--------------------------|
B|--------------------------15--15b---15b--------15-12---------------------|
G|----2b-2b-2b-2b-2br-0-2~----------------------------14-12----------------|
D|---------------------------------------------------------14-12-----------|
A|--------------------------------------------------------------14-12------|
E|-------------------------------------------------------------------15-12-|

  (Half Step)                        Solo 2 (Whammy Trills)
e|---------------------------------|---------------------------------------|
B|---------------------------------|-----6h9p6h9---------------------------|
G|---------------------------------|24db---------14db--0db--2---------2-4--|
D|-------------------------------14|------------------------2-4-2-4--4-----|
A|-12-12b-12--12b-12-12b-12------14|---------------------------------------|
E|---------------------------15----|---------------------------------------|

                                        End Solo   
e|-----------5p2-2--5p2-2--5p2-2--5p2-2-------------|
B|-------2h5----2------2------2------2---5--5-------|
G|-4b-4----------------------------------4b-4b-4~---|
D|--------------------------------------------------|
A|--------------------------------------------------|
E|--------------------------------------------------|

At the end of the last chorus play this:
e|-------------|
B|-------------|
G|-------------|
D|-3-3-2--9----|
A|-1-1-0--7----|
E|--------0----|


================================ TAB Legend ================================

|  /  slide up
|  \  slide down
|  h  hammer-on 
|  p  pull-off
|  b  bend note 
|  ~  vibrato
|  H  harmonic
|  PH pinch harmonic
|  x  Muted string
| db  Dive Bomb
============================================================================
Show more