• Song:

    Right Between The Eyes

  • Artist:

    Garbage

RIGHT BETWEEN THE EYES
Garbage

Taken from the Geffen album Bleed Like Me (2005)

Standard tuning: E A D G

Fig. 1a
| ---------------------------------------------------------------------|
| ---------------------------------------------------------------------|
|-5-5-5-5-5-5-5-5-5-5-5-5-5-5-5-5--------------------------------------|
|----------------------------------2-2-2-2-2-2-2-2-2-2-2-2-2-5-5-5-----|

Fig. 1b
| ---------------------------------------------------------------------|
| ---------------------------------------------------------------------|
|-5-5-5-5-5-5-5-5-5-5-5-5-5-5-5-5--------------------------------------|
|----------------------------------2-2-2-2-2-2-2-2-2-2-2-2-2-2-2-2-----|

Fig. 1c
| ---------------------------------------------------------------------|
| ---------------------------------------------------------------------|
|-5-5-5-5-5-5-5-5-5-5-5-5-5-5-5-5--------------------------------------|
|----------------------------------2-2-2-2-2-2-2-2-5-5-5-5-5-5-5-5-----|

Fig. 2
|----------------------------------------------------------------------|
|----------------------------------------------------------------------|
|----------------------------------------------------------------------|
|-5-5-5-5-5-5-5-5-5-5-5-5-5-5-5-5-3-3-3-3-3-3-3-3-3-3-3-3-3-3-3-3------|

|----------------------------------------------------------------------|
|----------------------------------------------------------------------|
|----------------------------------------------------------------------|
|-5-5-5-5-5-5-5-5-5-5-5-5-5-5-5-5-3-3-3-3-3-3-3-3-6-6-6-6-6-6-6-6------|

Fig. 3
|--------------------------------------------------------------------|------------|
|--------------------------------------------------------------------|--REPEAT----|
|--------------------------------------------------------------------|-two-more---|
|-5-5-5-5-5-5-5-5-5-5-5-5-5-5-5-5-3-3-3-3-3-3-3-3-3-3-3-3-3-3-3-3-|---times-------|

| -----------------------------------------------------|
| -----------------------------------------------------|
| -----------------------------------------------------|
|-5-5-5-5-5-5-5-5-5-5-5-5-5-5-5-5-3----3----3----------|

Fig. 4
|-----------------------------------|------------|
|-----------------------------------|--REPEAT----|
|-5-5-5-5-5-5-5-5------------------|-two-more----|
|------------------6-6-6-6-6-6-6-6-|---times-----|
Show more