• Song:

    Why do you love me

  • Artist:

    Garbage

  • Album:

    Absolute Garbage

Garbage ? Why do you love me?

album: Bleed Like Me (2005)


> = Strum a couple of times

Intro:
G-----------------------|
D-----------------------|
A-----------------------|
E-0-3--0-5--0-3--0-5--0-| X2

Verse: (time:0.06)
G-------------------------|
D-------------------------|
A-7>-3>----5>-7>-3>----2>-|
E-------3>----------3>----| X2

So what if i?m ...  (time: 0.29)
G-------------|
D-------------|
A-3>-5>-3>-5>-|
E-------------|

Chorus: (time: 0.42)
G-------------------------------------------------------------|
D-------------------------------------------------------------|
A----3>----5>----3>----2>----3>----5>-------33-33-------22-22-|
E-0>----3>----0>----3>----0>----3>----00-00-------33-33-------|


Intro (time: 1.O6)
Verse (time: 1.12)
Chorus (time: 1.47)

Bridge: (time: 2.12)
I Get Back up
G-------------|
D-------------|
A-3>-5>-3>-5>-|
E-------------|

Intro 2X (time: 2.24)

I Think you?re sleeping...
-> No Bass, sometimes play this:

G-----------|
D-----------|
A-----------|
E-0-3-0-5-0-|

Bridge (time: 3.00) I Get back up...

Endchorus: (time: 3.11)

G-------------------------|
D-------------------------|
A----3>----5>----3>----2>-|
E-0>----3>----0>----3>----|


G-------------------------------------------------------------|
D-------------------------------------------------------------|
A----3>----5>----3>----2>----3>----5>-------33-33-------22-22-|
E-0>----3>----0>----3>----0>----3>----00-00-------33-33-------|

Intro (time: 3.48)

That?s it. Enjoy
Show more