• Song:

    You Look So Fine

  • Artist:

    Garbage

  • Album:

    Hit Singles

Band: Garbage
Song Title: You Look So Fine
Tuning: Normal

Yet A Third Rewrite To This Tab. I Think I have The Chord Style More Like The Original 
This Time. You Dont Have To Play All The Fills They Are Just There If You Want To.

Chords For The Song: The Chords For The Song Are Fingered A Little Different Than Normal 
Are As Follows. You Can Finger Them Normally If You Would Like Though.

     E   G  Bm   Bm  C  C/D
E|---X---X---X---2---X---X---|
B|---X---X---X---3---X---5---|
G|---X---X---X---4---X---5---|
D|---X---X---0---4---2---5---|
A|---2---2---2---2---3---5---|
E|---0---3---X---X---X---X---|


Intro starts at (0:05)

Keyboard intro for guitar.

E|-15----15----14----14----|
B|----12----12----12----12-|
G|-------------------------|
D|-------------------------|
A|-------------------------|
E|-------------------------|


Verse 1:

You look so fine[Em]
I want to [C]break your heart
And give you [G]mine
You're taking me over [D]
It's so insane [Em]
You've got me [C]tethered and chained
I hear your name [G]
And I'm falling [D]over


Pre Chorus:
Guitar I: Plays The Chords

I'm not like[C] all the other girls [Em]
I can't take [C]it like the other girls [Em]
I won't [C]share it like the other girls [Em]
That you used to know [D] or [C/D]

Guitar II: Plays Picked Part Repeats For Entire Pre Chorus.

E|-----------10-------|---------10---------|
B|---8-7-8-7----7-8-7-|-8-7-8-7----7-8-7---|
G|--------------------|--------------------|
D|--------------------|--------------------|
A|--------------------|--------------------|
E|--------------------|--------------------|

Chorus
Guitar I: Plays Chords
Guitar II: PLays Ebow Part

Guitar I: Listen To Song For Chord Changes.
Em      C       G       Bm

Guitar II: (ebow)
E|------------------------------------------|
B|---7----8----7----8----7----5----3----7---|
G|------------------------------------------|
D|------------------------------------------|
A|------------------------------------------|
E|------------------------------------------|

Guitar I:
[C]Knocked down
[G]Cried out
[Em]Been down just to [Bm] find out (Play This Bm Normally As A Bar Chord)
[C]I'm through
[G]Bleeding for you [C/D]


Guitar II: I kind of made this part up to go with the harmony. It can be played with the 
of just notes. Let the notes ring out though. I added the words for guitar II's part.

 |Knocked Down|  Cried Out  |  Been Down  | Find Out  |  Im Through Bleeding For You  |
E|------------|-------------|-------------|-----------|-------------------------------|
B|------------|-------------|-------------|-----------|-------------------------------|
G|----2---4---|---21---19---|---14---16---|---9---7---|---2---4---2-p-0---------------|
D|------------|-------------|-------------|-----------|-----------------------2-p-0---|
A|------------|-------------|-------------|-----------|-------------------------------|
E|------------|-------------|-------------|-----------|-------------------------------|


Verse 2:
Guitar I: Plays Chords Implied Keyboard Parts
Guitar II: Plays Riff A (Slow Bend Or Slide)

 |Riff A |  |  Riff B  |  |      Riff C      |  |    Riff 
   |
E|-------| E|----------| E|------------------| E|--------------|
B|-3-/-5-| B|----------| B|------------------| B|--------------|
G|-------| G|-0-H-2-/4-| G|------------------| G|-16/14-12-/16-|
D|-------| D|----------| D|-7-7-9/10/9--9--7-| D|--------------|
A|-------| A|----------| A|------------------| A|--------------|
E|-------| E|----------| E|------------------| E|--------------|


 |         Riff E          |  | Riff F |
E|-------------------------| E|--------|
B|-------------------------| B|--------|
G|-4/5/5/2/4/2/4/2-0-H-2/4-| G|--4/2---|
D|-------------------------| D|--------|
A|-------------------------| A|--------|
E|-------------------------| E|--------|

Guitar I:
I'm open wide[Em] or (Riff A)
I want to [C]take you home
We'll waste some time [G] or (Riff B)
You're the only one [D]for me (Riff C)

You look so fine [Em] (Riff A) or (Riff D)
I'm like the desert[C] tonight (Riff E)
Leave her [G]behind (Riff B)
If you want to [D]show me (Riff F)

Pre Chorus:
Guitar I: Plays The Chords

I'm not like[C] all the other girls [Em]
I can't take [C]it like the other girls [Em]
I won't [C]share it like the other girls [Em]
That you used to know [D] or [C/D]

Guitar II: Plays Picked Part Repeats For Entire Pre Chorus.
E|-----------10-------|---------10---------|
B|---8-7-8-7----7-8-7-|-8-7-8-7----7-8-7---|
G|--------------------|--------------------|
D|--------------------|--------------------|
A|--------------------|--------------------|
E|--------------------|--------------------|

Outro:
Guitar I: Plays Chords
Guitar II: Melody Parts

You're taking me over [C]
Over and over [Em]
I'm falling over [C]
Over and over [Em]
Guitar II: Melody Parts I Made Each One In Two Different Ocatives

 | Over | Over And Over |  Over   |   Over And Over    |
E|------|---------------|---------|--------------------|
B|------|---------------|---------|--------------------|
G|-2-/4-|-4-/-2-0-2-/-4-|-14-/-16-|-16-/-14-12-14-/-16-|
D|------|---------------|---------|--------------------|
A|------|---------------|---------|--------------------|
E|------|---------------|---------|--------------------|

You're taking me [C]over
[Em]Drown in me [C]one more time
[Em]Hide inside [C]me tonight
[Em]Do what you [C]want to do
[Em]Just pretend [C]happy end
[Em]let me know [C]let it show

[Em]Ending with [C]letting go [3x]

[Em]lets pretend, [C]happy end [4x]
Show more