-------------------------------------------------------------------------------
			     on my own time (write on) - gym class heroes
-------------------------------------------------------------------------------

Tabbed By : SdTuEoVlEcN
e-mail: red_flag_waving@hotmail.co.uk

Tuning:standard

intro

G|----------------------------------------------------------------------|
D|----------------------------------------------------------------------|
A|----------3-33-3-33---------3-33-3-33---------------------------------|
E|-2-22-2-22---------2-22-2-22---------2-22-2-22------------------------|

verse

G|-------------------------------------------------------|
D|-------------------------------------------------------|
A|----------3-33-3-33------------------------------------|x3
E|-2-22-2-22---------2-22-2-22-----00-22-----------------|

chorus - part 1 (maybe pre chorus)

G|--------------------------------------------------------------------|
D|--------------------------------------------------------------------|
A|-33-33-------------3-3-2--------2-3-5-------------------------------|
E|------2-2-22-22-2-2------0-0-0-0------------------------------------|

chorus - part 2
G|-------------------------------------------------------------------------|
D|-------------------------------------------------------------------------|
A|-3-3-2-------2-3-5---------3-2-3-5-3-3-2-------2-3-5---------------------|
E|------0-0-0-0-----22-22-2-2-0-----------0-0-0-0--------------------------|

build up (end of chorus)

G|-----------------------------------------------------------------------|
D|-----------------------------------------------------------------------|
A|-----------------------------------------------------------------------|
E|-2-2-2-2-2-2-2-2-2-2-2-2-2-2-2-2---------------------------------------|

solo

G|---------------------------------------------------------------------|
D|---------------------------------------------------------------------|
A|-3-3-2-------2-3-5---------3-2-3-5-3-3-2-------2-3-5-----------------|
E|------0-0-0-0-----22-22-2-2-0-----------0-0-0-0----------------------|

build up again

G|------------------------------------------------------------------|
D|------------------------------------------------------------------|
A|------------------------------------------------------------------|
E|-2-2-2-2-2-2-2-2-2-2-2-2-2-2-2-2----------------------------------|

outro

G|--------------------------------------------------------------------|
D|--------------------------------------------------------------------|
A|----------3-33-3-33---------3-33-3-33-------------------------------|x3
E|-2-22-2-22---------2-22-2-22----------------------------------------|

| /  slide up
| \  slide down
| h  hammer-on
| p  pull-off
| ~  vibrato
| +  harmonic
| x  Mute note
===============================================================================
Show more