Guitar and Bass  
 
Intro and Verses 
B|----------------------------------------------------| 
G|----------------------------------------------------| 
D|----------------------------------------------------|    
A|---7-7-5-5-7-7-------------5-5-5-5------------------| 
E|---------------5-5-3-3-3-3--------------------------| 
 
Refrain: 
 
    use power chords 
B|---x-----x-----x-----x------------------------------| 
G|---x-----x-----7-----9------------------------------| 
D|---7-----5-----7-----9------------------------------|    
A|---7-----5-----5-----7------------------------------| 
E|---5-----3------------------------------------------| 
	 
Chorus: 
 
B|---x----x----x-----x---x-----------------------------| 
G|---5----x----7-----9---7---5-------7--9--11--9--7----| 
D|---5----5----7-----9---7---5---5---7--9--11--9--7----|    
A|---3----5----5-----7---5---3---5---5--7--9---7--5----| 
E|--------3----------------------3---------------------| 
 
B|---x----x----x-----x---x----------------------------------| 
G|---5----x----7-----9---7---5------7--9--7------9/-5/------| 
D|---5----5----7-----9---7---5------7--9--7------9/-5/-7----|    
A|---3----5----5-----7---5---3------5--7--3------7/-3/-7----| 
E|--------3--------------------------------------------3----| 
 
instrumental: 
 
C-G-Em-F#
Show more