Jo Jo – Secret Love

Standard Tuning: EADGBE

Tabbed by: andrewB

Intro:
Gtr1.
|-5--7--8--7--5h7p5-------|------------------------|
|--------------------8--5-|------------------------|
|-------------------------|-9\7--5--5/7--5\4-------|
|-------------------------|-------------------5-5/7|
|-------------------------|------------------------|
|-------------------------|------------------------|


|-----8--7--5-5h7-p5--5-|-----------------5—5/7—5-5----|
|-3/5-------------------|---5h6-5h6-5/6\5-----------5h6|
|-----------------------|------------------------------|
|-----------------------|------------------------------|
|-----------------------|------------------------------|
|-----------------------|------------------------------|


|-----8--7--5-5h7-p5--5-|-----------------5—5/7—5-5----|
|-3/5-------------------|---5h6-5h6-5/6\5-----------5h6|
|-----------------------|------------------------------|
|-----------------------|------------------------------|
|-----------------------|------------------------------|
|-----------------------|------------------------------|


|--------8--7--5--5h7p5--|--------------------5h7--5--|
|---3/5------------------|5h6-5h6--5/6-5/6/5----------|
|------------------------|----------------------------|
|------------------------|----------------------------|
|------------------------|----------------------------|
|------------------------|----------------------------|


Verses, Chorus, Bridge:
Gtr2.
Am              Dm7

|--------------|----------------|
|---5----5--x--|-----6----6--x--|
|---5----5--x--|-----5----5--x--|
|---7----7--x--|-----7----7--x--|
|--------------|-0-5------------|
|-5------------|----------------|

NOTE: This is how I play it. Gtr2 plays two chords (Am and Dm7) through the whole song 
Gtr1 improvises over them.
Show more