• Song:

    All Fall Down

  • Artist:

    Mercyme

  • Album:

    Almost There

No Bass During Intro

Chorus
G----------------------------------------|
D----------------------------------------|
A-5-5-5~---5-5-5~--------9----------2/7--|x2
E------------------0--2-2--12/--0-0------|

G----|
D----|
A-5~-|
E----|

Verse 2
G-------------------------------|
D-------------------------------|
A-5-5-5~--0-0-0~--------7-7/----|
E----------------0-0-0~-------0-|x2

G----------------------------------|
D----------------------------------|
A-----------------5-5-5~--5555555/-|
E-2-2-2~--0-0-0~-------------------|

Chorus
G----------------------------------------|
D----------------------------------------|
A-5-5-5~---5-5-5~--------9----------2/7--|x2
E------------------0--2-2--12/--0-0------|

Bridge
G------------------------------------------------------|
D------------------------------------------------------|
A-55555555-77777777----------------1212121212121212\---|x3
E-------------------22-22-22-2222/---------------------|

Chorus
G----------------------------------------|
D----------------------------------------|
A-5-5-5~---5-5-5~--------9----------2/7--|x4
E------------------0--2-2--12/--0-0------|

Ending(Same as bridge but, constant plucking
when playing F# and play x2 instead of x3)

And that's it. On the bridge the 12's can be replaced
with 0's but, I just like to play the high notes because to 
me it sounds cooler. Have fun.
Show more